Oops, an error
Loading. Please wait.

Mailbox Arson tab

version 2
version 2

Whole song

Interactive

3,520 views 1 this week
3 commentsread comments
1 2 3 4 5
x 3
add to favorites
×
Save as Personal and add changes to this tab that will be seen only by you. Learn more ›
×
You can save this tab as Personal to edit and correct it or add notes. All changes will be seen only by you. Learn more »
launch autoscroll
font size
0
reset
how to read this tab
guitar tuner
edit
Autoscroll
slow
fast
+/-
esc
set tempo
stop
Author
Difficulty
Tuning: dropped half step then drop D.

Intro
|-----------------------------------------------------------------------|
|-----------------------------------------------------------------------|
|--6--------------------------------------------------------------------|
|--6--------------------------------------------------------------------|
|--4--------------------------------------------------------------------|
|-----------------------------------------------------------------------|


Verse

(Guitar 1)
|-----------------------------------------------------------------------|
|-----------------------------------------------------------------------|
|-4/6-66-4--44/9-9-44/6-6-----------------------------------------------|
|-x/x-xx-x--xx/x-x-xx/x-x-----------------------------------------------|
|-2/4-44-2--22/7-7-22/4-4---(x4)----------------------------------------|
|-----------------------------------------------------------------------|

(Guitar 2)
|-----------------------------------------------------------------------|
|-----------------------------------------------------------------------|
|-4/6-66-4--44/9-9-44/6-6--------on third time:--1111111-9-6------------|
|-x/x-xx-x--xx/x-x-xx/x-x------------------------x-x-x-x-x-x------------|
|-2/4-44-2--22/7-7-22/4-4-(x3)-------------------9-9-9-9-7-4------------|
|-----------------------------------------------------------------------|


(Guitar 1)
|-----------------------------------------------------------------------|
|-----------------------------------------------------------------------|
|-4/6-66-4--44/9-9-44/6-6-----------------------------------------------|
|-x/x-xx-x--xx/x-x-xx/x-x-----------------------------------------------|
|-2/4-44-2--22/7-7-22/4-4--(x8)-----------------------------------------|
|-----------------------------------------------------------------------|

(Guitar 2)
|-----------------------------------------------------------------------|
|---------------------------------------(this part may alter slightly)--|
|-11h13p11------------------11h13p11------------------------------------|
|----------13-14p13-11-11-------------13141311--------------------------|
|---------------------------------------------14------------------------|
|-----------------------------------------------------------------------|


Pre Chorus
|-----------------------------------------------------------------------|
|-----------------------------------------------------------------------|
|-6666666666666666-2222222222222222-------------------------------------|
|-6666666666666666-2222222222222222-4444444444444444-33333333-22222222--|
|-4444444444444444-0000000000000000-4444444444444444-33333333-22222222--|
|-----------------------------------4444444444444444-33333333-22222222--|


Chorus

(Guitar 1)
|-----------------------------------------------------------------------|
|-----------------------------------------------------------------------|
|-6666666666666666-2222222222222222-------------------------------------|
|-6666666666666666-2222222222222222-4444444444444444-33333333-22222222--|
|-4444444444444444-0000000000000000-4444444444444444-33333333-22222222--|
|-----------------------------------4444444444444444-33333333-22222222--|

(Guitar 2)
|-----------------------------------------------------------------------|
|-------------/12121212-------------------------------------------------|
|-99999999999-----------(x3)-9999999-8-9-8-9-8-99-----------------------|
|-----------------------------------------------------------------------|
|-----------------------------------------------------------------------|
|-----------------------------------------------------------------------|


Fill
|-----------------------------------------------------------------------|
|-----------------------------------------------------------------------|
|-4/6-66-4--44/9-9-44/6-6-----------------------------------------------|
|-x/x-xx-x--xx/x-x-xx/x-x-----------------------------------------------|
|-2/4-44-2--22/7-7-22/4-4---(x4)----------------------------------------|
|-----------------------------------------------------------------------|


Verse
(Guitar 1)
|-----------------------------------------------------------------------|
|-----------------------------------------------------------------------|
|-4/6-66-4--44/9-9-44/6-6-----------------------------------------------|
|-x/x-xx-x--xx/x-x-xx/x-x-----------------------------------------------|
|-2/4-44-2--22/7-7-22/4-4--(x4)-----------------------------------------|
|-----------------------------------------------------------------------|

(Guitar 2)
|-----------------------------------------------------------------------|
|--------------------------------------(this part may alter slightly)---|
|-11h13p11------------------11h13p11------------------------------------|
|----------13-14p13-11-11-------------13141311--------------------------|
|---------------------------------------------14------------------------|
|-----------------------------------------------------------------------|


Interlude

|-1616----1214--------1616----121412----------16~(after 4 times)--------|
|------14------14----------14--------14-(x4)----------------------------|
|-----------------------------------------------------------------------|
|-----------------------------------------------------------------------|
|-----------------------------------------------------------------------| 
|-----------------------------------------------------------------------|


                       |----------------------|

(Guitar 1)
|-----------------------------------------------------------------------|
|-----------------------------------------------------------------------|
|-9--8-----9--8--------11--9------11--9---------------------------------|
|-------9--------9-----------11---------11--(x3)------------------------|
|-----------------------------------------------------------------------|
|-----------------------------------------------------------------------|

(Guitar 2, starts once guitar 1 has played x2, then plays with g1 x1, then alone x1)
|---12(x32)--9(x32)-----------------------------------------------------|
|-----------------------------------------------------------------------|
|-----------------------------------------------------------------------|
|-----------------------------------------------------------------------|
|-----------------------------------------------------------------------|
|-----------------------------------------------------------------------|

                         |------------------|


|-----------------------------------------------------------------------|
|-----------------------------------------------------------------------|
|-9999-8------------9999-8------------11-111111-9-----------------------|
|--------9-9999999---------9-9999999--------------111111111-9-9h11-9h11-|
|-----------------------------------------------------------------------|
|-----------------------------------------------------------------------|


Pre Chorus
|-----------------------------------------------------------------------|
|-----------------------------------------------------------------------|
|-6666666666666666-2222222222222222-------------------------------------|
|-6666666666666666-2222222222222222-4444444444444444-33333333-22222222--|
|-4444444444444444-0000000000000000-4444444444444444-33333333-22222222--|
|-----------------------------------4444444444444444-33333333-22222222--|


Chorus

(Guitar 1)
|-----------------------------------------------------------------------|
|-----------------------------------------------------------------------|
|-6666666666666666-2222222222222222-------------------------------------|
|-6666666666666666-2222222222222222-4444444444444444-33333333-22222222--|
|-4444444444444444-0000000000000000-4444444444444444-33333333-22222222--|
|-----------------------------------4444444444444444-33333333-22222222--|

(Guitar 2)
|-----------------------------------------------------------------------|
|-------------/12121212-------------------------------------------------|
|-99999999999-----------(x3)-9999999-8-9-8-9-8-99-----------------------|
|-----------------------------------------------------------------------|
|-----------------------------------------------------------------------|
|-----------------------------------------------------------------------|

Outro

|-----------------------------------------------------------------------|
|-----------------------------------------------------------------------|
|--6-6-6-6-6~-----------------------------------------------------------|
|--6-6-6-6-6~-----------------------------------------------------------|
|--4-4-4-4-4~-----------------------------------------------------------|
|-----------------------------------------------------------------------|
Suggest correction
Creating personal tab
Creating personal tab
You can edit any tab online and save it as your Personal.

You can edit, replace or remove any tab part or add personal notes – all changes will be seen only by you.

Personal tabs can be accessed anytime from any device, even offline.
Learn more »
Give kudos to tab author, rate the tab!
1 2 3 4 5
comments
print report bad tab
3 comments total.
0 reply
Sk8er411 93 Sep 18, 2006 04:53 AM

I noticed i have made a mistake during the vers, guitar 2, its:

|--------------------------------------------------------------------|
|--------------------------------------------------------------------|
|-11h13p11---------------11h13p11------------------------------------|
|----------13-14-13-11------------13141311---------------------------|
|-----------------------------------------14-------------------------|
|--------------------------------------------------------------------|

0 reply
Sk8er411 93 Oct 10, 2006 04:10 AM

Sorry the tuning is actually half step down, then drop D.

0 reply
Spencerreid 10 Mar 20, 2008 06:47 PM

i don't get the inerlude part at all......but pretty good tab dude.

guest
You may want to rate the tab now too:
select rating
Wanna post a correction for this tab? Suggest correction