Oops, an error
Loading. Please wait.

My God Is A Reasonable Man tab

version 1
version 1

Whole song

1,114 views 1 this week
2 commentsread comments
1 2 3 4 5
1 last vote to show rating
add to favorites
×
Save as Personal and add changes to this tab that will be seen only by you. Learn more ›
×
You can save this tab as Personal to edit and correct it or add notes. All changes will be seen only by you. Learn more »
launch autoscroll
font size
0
reset
how to read this tab
guitar tuner
edit
Autoscroll
slow
fast
+/-
esc
set tempo
stop
Author
100%, flat

Guitar 1///////////////////////////////

Verse (00:00 – 00:29)

Eb|-----------------------------------------------|
Bb|-----------------------------------------------|
Gb|-9-9-9111111-4-4-4888-9-9-9111111-12-12-12\/---| x4 
Db|-x-x-xx-x-x--x-x-xxxx-x-x-xx-x-x--x--x--x-\/---|
Ab|-7-7-79-9-9--2-2-2666-7-7-79-9-9--10-10-10\/---|
Eb|-----------------------------------------------|

Verse 2 (00:29 – 00:58)

Eb|---------------------------|
Bb|---------------------------|
Gb|---------------------------| x19 
Db|---------------------------|
Ab|-10h12p10h12p10h12p10h12---|
Eb|---------------------------|

Eb|------------------|
Bb|------------------|
Gb|------------------| 
Db|------------------|
Ab|-10h12p10h12~~~---|
Eb|------------------|

Chorus (00:58 – 01:20)

Eb|---------------------------------------|
Bb|---------------------------------------|
Gb|---------------------------------------|
Db|-2-222--22-2-22-22-2-222--22-2-22-22---|
Ab|-2-222--22-2-22-22-2-222--22-2-22-22---|
Eb|-0-000--00-0-00-00-0-000--00-0-00-00---|

Eb|-------------------------------------------------------------|
Bb|-------------------------------------------------------------|
Gb|-------------------------------------------------------------|
Db|-12-121212--1212-12-1212-1212-12-121212--1212-12-1212-1212---|
Ab|-12-121212--1212-12-1212-1212-12-121212--1212-12-1212-1212---|
Eb|-10-101010--1010-10-1010-1010-10-101010--1010-10-1010-1010---|

Eb|---------------------------------------|
Bb|---------------------------------------|
Gb|---------------------------------------|
Db|-2-222--22-2-22-22-2-222--22-2-22-22---|
Ab|-2-222--22-2-22-22-2-222--22-2-22-22---|
Eb|-0-000--00-0-00-00-0-000--00-0-00-00---|

Eb|-------------------------------------------------------------|
Bb|-------------------------------------------------------------|
Gb|-------------------------------------------------------------|
Db|-12-121212--1212-12-1212-1212-12-121212--1212-12-1212-1212---|
Ab|-12-121212--1212-12-1212-1212-12-121212--1212-12-1212-1212---|
Eb|-10-101010--1010-10-1010-1010-10-101010--1010-10-1010-1010---|

Verse 3 (01:20 – 01:44)

Eb|-----------------------------------------------|
Bb|-----------------------------------------------|
Gb|-9-9-9111111-4-4-4888-9-9-9111111-12-12-12\/---| x4 
Db|-x-x-xx-x-x--x-x-xxxx-x-x-xx-x-x--x--x--x-\/---|
Ab|-7-7-79-9-9--2-2-2666-7-7-79-9-9--10-10-10\/---|
Eb|-----------------------------------------------|

Bridge (01:44 – 02:12)

Eb|---------------------------|
Bb|-10-10-------10-10---------|
Gb|-------12-12-------12-12---| x18
Db|---------------------------|
Ab|---------------------------|
Eb|---------------------------|

Eb|---------------|
Bb|-10-------10---|
Gb|----12-12------|
Db|---------------|
Ab|---------------|
Eb|---------------|

Chorus 2 (02:12 – 02:36)

Eb|-------------------------------|
Bb|-----------------7-------------|
Gb|-9-7-9-----7-9-7---9-7-9-7-9b--|
Db|-------9-7---------------------|
Ab|-------------------------------|
Eb|-------------------------------|

Eb|-----------------------------------|
Bb|-------------------10b-------------|
Gb|-9-7-9-----7-9-7-9-----9-7-9-7-9---|
Db|-------9-7-------------------------|
Ab|-----------------------------------|
Eb|-----------------------------------|

Eb|-------------------------------|
Bb|-----------------7-------------|
Gb|-9-7-9-----7-9-7---9-7-9-7-9b--|
Db|-------9-7---------------------|
Ab|-------------------------------|
Eb|-------------------------------|

Eb|-----------------------------------|
Bb|-------------------10b-------------|
Gb|-9-7-9-----7-9-7-9-----9-7-9-7-9---|
Db|-------9-7-------------------------|
Ab|-----------------------------------|
Eb|-----------------------------------|

Eb|-------------------------------|
Bb|-----------------7-------------|
Gb|-9-7-9-----7-9-7---9-7-9-7-9b--|
Db|-------9-7---------------------|
Ab|-------------------------------|
Eb|-------------------------------|

Eb|-----------------------------------|
Bb|-------------------10b-------------|
Gb|-9-7-9-----7-9-7-9-----9-7-9-7-9---|
Db|-------9-7-------------------------|
Ab|-----------------------------------|
Eb|-----------------------------------|

Eb|-------------------------------|
Bb|-----------------7-------------|
Gb|-9-7-9-----7-9-7---9-7-9-7-9b--|
Db|-------9-7---------------------|
Ab|-------------------------------|
Eb|-------------------------------|

Eb|-----------------------------------|
Bb|-------------------10b-------------|
Gb|-9-7-9-----7-9-7-9-----9-7-9-7-9---|
Db|-------9-7-------------------------|
Ab|-----------------------------------|
Eb|-----------------------------------|

Eb|----------|
Bb|----------|
Gb|-999-9\---|
Db|-999-9\---|
Ab|-777-7\---|
Eb|----------|

Verse 4 (02:36 – 03:04)

Eb|-----------------------------------------------|
Bb|-----------------------------------------------|
Gb|-9-9-9111111-4-4-4888-9-9-9111111-12-12-12\/---| x3 
Db|-x-x-xx-x-x--x-x-xxxx-x-x-xx-x-x--x--x--x-\/---|
Ab|-7-7-79-9-9--2-2-2666-7-7-79-9-9--10-10-10\/---|
Eb|-----------------------------------------------|

Eb|--------------------------|
Bb|--------------------------|
Gb|-9-9-9111111-4-4-4888-9---|
Db|-x-x-xx-x-x--x-x-xxxx-x---|
Ab|-7-7-79-9-9--2-2-2666-7---|
Eb|--------------------------|

Guitar 2////////////////////////

Verse (00:00 – 00:29)

Eb|-9*---|
Bb|-9*---|
Gb|-9*---|
Db|-9*---|
Ab|-9*---|
Eb|------|

Eb|-----------------------------------------------|
Bb|-----------------------------------------------|
Gb|-9-9-9111111-7-7-7888-9-9-9111111-12-12-12\/---| x4 
Db|-x-x-xx-x-x--x-x-xxxx-x-x-xx-x-x--x--x--x-\/---|
Ab|-7-7-79-9-9--5-5-5666-7-7-79-9-9--10-10-10\/---|
Eb|-----------------------------------------------|

Verse 2 (00:29 – 00:58)

Eb|---------------|
Bb|---------------|
Gb|-----9\---99---| x2 
Db|-----x\---xx---|
Ab|-----7\---77---|
Eb|-000-----------|
.......Palm mute

Eb|---------------|
Bb|---------------|
Gb|-----7\---77---| x2 
Db|-----x\---xx---|
Ab|-----5\---55---|
Eb|-000-----------|
.......Palm mute

Eb|---------------|
Bb|---------------|
Gb|-----9\---99---| x2 
Db|-----x\---xx---|
Ab|-----7\---77---|
Eb|-000-----------|
.......Palm mute

Eb|---------------|
Bb|---------------|
Gb|-----7\---77---| x2 
Db|-----x\---xx---|
Ab|-----5\---55---|
Eb|-000-----------|
.......Palm mute

Chorus (00:58 – 01:20)

Eb|---------------------------------------------------|
Bb|---------------------------------------------------|
Gb|-12h14p12h14p12h14p12h14p12h14p12h14p12h14p12h14---| x8 
Db|---------------------------------------------------|
Ab|---------------------------------------------------|
Eb|---------------------------------------------------|

Verse 3 (01:20 – 01:44)

Eb|-----------------------------------------------|
Bb|-----------------------------------------------|
Gb|-9-9-9111111-7-7-7888-9-9-9111111-12-12-12\/---| x4 
Db|-x-x-xx-x-x--x-x-xxxx-x-x-xx-x-x--x--x--x-\/---|
Ab|-7-7-79-9-9--5-5-5666-7-7-79-9-9--10-10-10\/---|
Eb|-----------------------------------------------|

Bridge (01:44 – 02:12)

Eb|---------|
Bb|---------|
Gb|---------|
Db|-77-7\---|
Ab|-xx-x\---|
Eb|-55-5\---|

Eb|--------------|
Bb|--------------|
Gb|--------------| x7
Db|-77---77-7\---|
Ab|-xx---xx-x\---|
Eb|-55---55-5\---|

Eb|------|
Bb|------|
Gb|------|
Db|-77---|
Ab|-xx---|
Eb|-55---|

Chorus 2 (02:12 – 02:36)

Eb|---------------------------------------|
Bb|---------------------------------------|
Gb|---------------------------------------|
Db|-2-222--22-2-22-22-2-222--22-2-22-22---|
Ab|-2-222--22-2-22-22-2-222--22-2-22-22---|
Eb|-0-000--00-0-00-00-0-000--00-0-00-00---|

Eb|-------------------------------------------------------------|
Bb|-------------------------------------------------------------|
Gb|-------------------------------------------------------------|
Db|-12-121212--1212-12-1212-1212-12-121212--1212-12-1212-1212---|
Ab|-12-121212--1212-12-1212-1212-12-121212--1212-12-1212-1212---|
Eb|-10-101010--1010-10-1010-1010-10-101010--1010-10-1010-1010---|

Eb|---------------------------------------|
Bb|---------------------------------------|
Gb|---------------------------------------|
Db|-2-222--22-2-22-22-2-222--22-2-22-22---|
Ab|-2-222--22-2-22-22-2-222--22-2-22-22---|
Eb|-0-000--00-0-00-00-0-000--00-0-00-00---|

Eb|-------------------------------------------------------------|
Bb|-------------------------------------------------------------|
Gb|-------------------------------------------------------------|
Db|-12-121212--1212-12-1212-1212-12-121212--1212-12-1212-1212---|
Ab|-12-121212--1212-12-1212-1212-12-121212--1212-12-1212-1212---|
Eb|-10-101010--1010-10-1010-1010-10-101010--1010-10-1010-1010---|

Eb|----------|
Bb|----------|
Gb|-999-9\---|
Db|-999-9\---|
Ab|-777-7\---|
Eb|----------|

Verse 4 (02:36 – 03:04)

Eb|-----------------------------------------------|
Bb|-----------------------------------------------|
Gb|-9-9-9111111-7-7-7888-9-9-9111111-12-12-12\/---| x3 
Db|-x-x-xx-x-x--x-x-xxxx-x-x-xx-x-x--x--x--x-\/---|
Ab|-7-7-79-9-9--5-5-5666-7-7-79-9-9--10-10-10\/---|
Eb|-----------------------------------------------|

Eb|--------------------------|
Bb|--------------------------|
Gb|-9-9-9111111-7-7-7888-9---|
Db|-x-x-xx-x-x--x-x-xxxx-x---|
Ab|-7-7-79-9-9--5-5-5666-7---|
Eb|--------------------------|

            
            
Suggest correction
Creating personal tab
Creating personal tab
You can edit any tab online and save it as your Personal.

You can edit, replace or remove any tab part or add personal notes – all changes will be seen only by you.

Personal tabs can be accessed anytime from any device, even offline.
Learn more »
Give kudos to tab author, rate the tab!
1 2 3 4 5
comments
print report bad tab
2 comments total.
0 reply
RenagadeFaction 20 Dec 26, 2006 04:55 PM

Ok I have a very important question. I have every AOF cd and I've never heard of this song... wanna fill me in?

0 reply
El Scorcho 855 Feb 08, 2007 07:08 PM

its on crisis special edition, a b side

guest
You may want to rate the tab now too:
select rating
Wanna post a correction for this tab? Suggest correction