Oops, an error
Loading. Please wait.

Old Crows bass

version 2
version 2

Whole song

Interactive

1,988 views 6 this week
1 commentread comment
1 2 3 4 5
x 4
add to favorites
×
Save as Personal and add changes to this tab that will be seen only by you. Learn more ›
×
You can save this tab as Personal to edit and correct it or add notes. All changes will be seen only by you. Learn more »
launch autoscroll
font size
0
reset
guitar tuner
edit
Autoscroll
slow
fast
+/-
esc
set tempo
stop
Alexisonfire
"Old Crows"
Bass
1/2 step down

Just an easier way to play it :)

Intro/verse
Gb|-------------------------------|
Db|------5-----5-5-----5-----5-5--|
Ab|--0-0---0-0--0---0-0--0-0--0---|
Eb|-------------------------------|

Gb|-------------------------------|
Db|------0-----0-0----------------|
Ab|--1-1---1-1--1------3-----3-3--|
Eb|----------------3-3---3-3--3---|

Pre-chorus
Gb|------------------------------|
Db|------------------------------|
Ab|------------------------------|
Eb|--555555555555-666666-333333--|

Chorus
Gb|----------------------------------|
Db|----------------------------------|
Ab|---------555555-------------------|
Eb|--555555--------333333-8888-6666--|

2nd verse
Gb|-------------------------------|
Db|------5-----5-5-----5-----5-5--|
Ab|--0-0---0-0--0---0-0--0-0--0---|
Eb|-------------------------------|

Gb|-------------------------------|
Db|------0-----0-0----------------|
Ab|--1-1---1-1--1------3-----3-3--|
Eb|----------------3-3---3-3--3---|

Pre-chorus
Gb|------------------------------|
Db|------------------------------|
Ab|------------------------------|
Eb|--555555555555-666666-333333--|

Chorus
Gb|----------------------------------|
Db|----------------------------------|
Ab|---------555555-------------------|
Eb|--555555--------333333-8888-6666--|

Bridge
Gb|---------------|
Db|---------------|
Ab|---------------|
Eb|--5555~-5555~--|

Gb|---------------------------|
Db|------5-----5-5------------|
Ab|--0-0---0-0--0-------------|
Eb|----------------333-66666--|

Gb|---------|
Db|---------|
Ab|---------|
Eb|--5~-5~--|

Chorus
Gb|----------------------------------|
Db|----------------------------------|
Ab|---------555555-------------------|
Eb|--555555--------333333-8888-6666--|

Outro
Gb|--------------------------------------------------------|
Db|--------------------------------------------------------|
Ab|--------------------------------------------------------|
Eb|--5[x8]-5[x8]-5[x8]-5[x8]-5[x8]-5[x8]-5[x8]-5[x8]-5-5~--|

            
            
Suggest correction
Creating personal tab
Creating personal tab
You can edit any tab online and save it as your Personal.

You can edit, replace or remove any tab part or add personal notes – all changes will be seen only by you.

Personal tabs can be accessed anytime from any device, even offline.
Learn more »
comments
print report bad tab
1 comment total.
0 reply
(sic)kid 10 Apr 03, 2011 03:51 PM

This tab is really accurate, unlike the other one on UG which is totally off key

guest
Wanna post a correction for this tab? Suggest correction