Oops, an error
Loading. Please wait.

Pulmonary Archery bass

version 1
version 1

Whole song

1,185 views 1 this week
no commentswrite comment
1 2 3 4 5
3 more votes to show rating
add to favorites
×
Save as Personal and add changes to this tab that will be seen only by you. Learn more ›
×
You can save this tab as Personal to edit and correct it or add notes. All changes will be seen only by you. Learn more »
launch autoscroll
font size
0
reset
guitar tuner
edit
Autoscroll
slow
fast
+/-
esc
set tempo
stop
Author
Difficulty
Alexisonfire - Pulmonary Archery
Tuning: EADG


//* Seen hardly any versions of the bass tab when its so easy to get just by listening 
to the song. Not 100% sure its correct, but most of it seems right and it fits the song
perfect! I have a more understandable version in Guitar pro 4 format if you want it, email.
Any comments email them to lukeratcliffe@hotmail.com ,Thanks. *\\


Key:

. = dotted note
/ = slide up
\ = slide down
~ = let ring
h = hammer
p = pulloff
m = mute (after hitting note)

Intro Noises .. until,

0:46              0:50 ... ( you get the jist)

G||-------------|-------------|-------------|------------|
D||-------------|-------------|-------------|------------|
A||--8---8---8--|--4---4---4--|--8---8---8--|--4--4--4m--|
E||-------------|-------------|-------------|------------|
     .   .            .   .      .   .         



1:12     *rythmn is hard to show here*

G||----------------------|----------------------|----------------------|----------------------|
D||----------------------|----------------------|----------------------|----------------------|
A||--8---8--8--8---8--8--|--8---8--8--8---8--8--|--4---4--4--4---4--4--|--4---4--4--4---4--4--|
E||----------------------|----------------------|----------------------|----------------------|


G||----------------------|----------------------|----------------------|
D||----------------------|----------------------|----------------------|
A||----------------------|----------------------|--4---4--4--4---4--4--|
E||--1---1--1--1---1--1--|--1---1--1--1---1--1--|----------------------| x1


1:22 (partly unsure about this part)

G||-------------------|-----------------|-------------------|-----------------|
D||-------------------|-----------------|-------------------|-----------------|
A||--8-8-8----8-8-8-8-|--8-8----8-8-8-8-|--4-4-4----4-4-4-4-|--4-4----4-4-4-4-|
E||-------------------|-----------------|-------------------|-----------------| x4


1:40

G||-----------------|----------------|
D||-----------------|----------------|
A||--8~~~~~8~~~~~8--|--6--6---6~~~~~~|
E||-----------------|----------------| x3 


(let ring a full bar, you'll hear it)

G||------------------|-----|
D||------------------|-----|
A||--8~~~~~8~~~~8~~~~|~~~~~|
E||------------------|-----|


1:50

G||------------------|------------------|-----------------|-----------------|
D||------------------|------------------|-----------------|-----------------|
A||------------------|------------------|-4-4-4-4-4-4-4-4-|-4-4-4-4-4-4-4-4-|
E||--1-1-1-1-1-1-1-1-|--1-1-1-1-1-1-1-1-|-----------------|-----------------| x4


2:10

G||------------------|----------------------|-------------------|-------------------|
D||------------------|----------------------|-------------------|-------------------|
A||------------------|--1--8--1--8--1--1--1-|-------------------|--1--8--4~~~~~~~~~~|
E||--1-1-1-1---------|----------------------|--1-1-1-1----------|-------------------| x2


2:29

G||-------------------|-----------------|-------------------|-----------------|
D||-------------------|-----------------|-------------------|-----------------|
A||--8-8-8----8-8-8-8-|--8-8----8-8-8-8-|--4-4-4----4-4-4-4-|--4-4----4-4-4-4-|
E||-------------------|-----------------|-------------------|-----------------| x4


2:48

G||-------------------|-------------------|-------------------||
D||-------------------|-------------------|-------------------||
A||-------------------|-------------------|--4~~~~~~~~~~~~~~~~||
E||--1-1-1-1-1-1-1-1--|--1-1-1-1-1-1-1-1--|-------------------||




Thanks alot, hope its right ;]





            
            
Suggest correction
Creating personal tab
Creating personal tab
You can edit any tab online and save it as your Personal.

You can edit, replace or remove any tab part or add personal notes – all changes will be seen only by you.

Personal tabs can be accessed anytime from any device, even offline.
Learn more »
Give kudos to tab author, rate the tab!
1 2 3 4 5
comments
print report bad tab
guest
You may want to rate the tab now too:
select rating
Wanna post a correction for this tab? Suggest correction