Oops, an error
Loading. Please wait.

Rough Hands tab

version 2
version 2

Whole song

Interactive

17,193 views 1 this week
7 commentsread comments
1 2 3 4 5
x 11
add to favorites
×
Save as Personal and add changes to this tab that will be seen only by you. Learn more ›
×
You can save this tab as Personal to edit and correct it or add notes. All changes will be seen only by you. Learn more »
launch autoscroll
font size
0
reset
how to read this tab
guitar tuner
edit
Autoscroll
slow
fast
+/-
esc
set tempo
stop
Author
Rough Hands - Alexisonfire

Tuning: EADGBe - 100% flat



Tabbed by: Chris Billing
email: Chrisbill_420@hotmail.com

I Used the right stuff from the other tab, reorganized it and added a new chorus.



Main verse/Intro -- plays through most of the song (00:00 – 00:52)
  Guitar 1 (00:00 – 00:52)
eb|---------------------------------------|
Bb|---------------------------------------|
Gb|---------------------------------------| 
Db|---------------------------------------|
Ab|---------------------------------------| x8 
Eb|-00000000-33333333-88888888-77777777---|

  Guitar 2 (00:19 - 00:52)
eb|--------------|--------------|--------------|--------------|
Bb|--------------|--------------|--------------|-0--(0)-------|
Gb|-0--(0)-------|-2--(2)-------|-0--(0)-------|---------2----|
Db|---------4--0-|---------2--0-|---------4--0-|------------0-|
Ab|--------------|--------------|--------------|--------------|
Eb|--------------|--------------|--------------|--------------|



Verse (00:52 – 01:24)

   "Was I Left Behind.."
eb|---------------------------------------|
Bb|---------------------------------------|
Gb|---------------------------------------| 
Db|---------------------------------------|
Ab|---------------------------------------| x4 
Eb|-00000000-33333333-88888888-77777777---|



Verse 2 (01:24 – 02:04)

   "She Says I Swear Too Much.."
eb|----------------------------------------------------------|
Bb|----------------------------------------------------------|
Gb|----------------------------------------------------------| 
Db|---22222222---55555555---1010101010101010---99999999------|
Ab|----------------------------------------------------------| x4 
Eb|----------------------------------------------------------|



Chorus (02:04 – 02:13) Each verse (below) lasts 9 seconds

   "All My Bones Are Dust.."
eb|---------------------------------------|
Bb|---------------------------------------|
Gb|---------------------------------------|
Db|---------------------------------------|
Ab|---------------------------------------| x4 
Eb|-00-87-000-000-333-333-8888888888888---|



Interlude (02:35 – 03:07)


eb|---------|
Bb|---------|
Gb|---------|
Db|---------|
Ab|---------| x4 
Eb|-0---0---|


Verse 3 (03:07 – 03:39)

   "One Day My Hands Were Too Soft.."
eb|----------------------------------------------------------|
Bb|----------------------------------------------------------|
Gb|----------------------------------------------------------| 
Db|---22222222---55555555---1010101010101010---99999999------|
Ab|----------------------------------------------------------| x4 
Eb|----------------------------------------------------------|


Bridge (03:39 – 04:09)


eb|---------------------------------------|
Bb|---------------------------------------|
Gb|---------------------------------------| 
Db|---------------------------------------|
Ab|---------------------------------------|
Eb|-0--------33333333-88888888-77777777---|



eb|---------------------------------------|
Bb|---------------------------------------|
Gb|---------------------------------------|
Db|---------------------------------------|
Ab|---------------------------------------| x2 
Eb|-00000000-33333333-88888888-77777777---|


Chorus 2 (04:09 – 05:30)

   
  "All My Bones Are Dust..."
eb|---------------------------------------|
Bb|---------------------------------------|
Gb|---------------------------------------| 
Db|---------------------------------------|
Ab|---------------------------------------| x3 
Eb|-00-87-000-000-333-333-8888888888888---|



eb|------------------------|
Bb|------------------------|
Gb|------------------------|
Db|------------------------|
Ab|------------------------|
Eb|-00-87-000-000-3333-8---|

            
            
Suggest correction
Creating personal tab
Creating personal tab
You can edit any tab online and save it as your Personal.

You can edit, replace or remove any tab part or add personal notes – all changes will be seen only by you.

Personal tabs can be accessed anytime from any device, even offline.
Learn more »
comments
print report bad tab
7 comments total. Showing first comments.
0 reply
pyritmann 134 Aug 24, 2007 07:52 PM

sounds right to me

0 reply
AOFn'GDfan 10 Aug 31, 2007 09:36 AM

its not at all its missing alot

0 reply
TeleCrisis 30 Sep 13, 2007 04:54 PM

uh pretty sure its not "missing alot", its just missing a bit

guest
You may want to rate the tab now too:
select rating
Wanna post a correction for this tab? Suggest correction