Oops, an error
Loading. Please wait.

The Kennedy Curse Bass Tab

version 1
version 1

Whole song

Interactive

1,110 views 1 this week
no commentswrite comment
1 2 3 4 5
please rate
add to favorites
launch autoscroll
font size
0
reset
guitar tuner
Autoscroll
slow
fast
+/-
esc
set tempo
stop
Help us to improve Ultimate-Guitar.com Take our survey!
×
Author
100%, flat

Intro (00:00 – 00:15) 

N/A 


Intro 2 (00:15 – 00:32) 
Gb|---------------------|
Db|---------------------|
Ab|---------------------|
Eb|-1-1-1~~~-5-5-5~~~---|

Gb|------------|
Db|------------|
Ab|------------|
Eb|-1-1-1-1~---| 

Verse 1 (00:32 - 00:58)

Gb|----------------------------------|
Db|----------------------------------|
Ab|----------------------------------| x6
Eb|-11-111-111-111-155-555-555-555---|

Gb|-------------|
Db|-------------|
Ab|-10~-8~-7~---|
Eb|-------------| 


Bridge (00:58 – 01:19) 
Gb|-------------------------------------|
Db|-------------------------------------|
Ab|-------------------------------------| x2 
Eb|-1111111111111111-5555555555555555---|


Verse 2 (01:19 – 01:40) 
Gb|---------------------|
Db|---------------------|
Ab|---------------------| x4 
Eb|-55-55555-11-11111---|

Chorus (01:40 – 02:22) 

Gb|-------------------------|
Db|----1010-9-------99-10---|
Ab|-------------------------|
Eb|-11--------11111---------| 
Gb|------9-----9-----9-----9-----9-----9---|
Db|-------109---109---109---109---109------|
Ab|---------10----10----10----10----10-----|
Eb|-1-55-----------------------------------|

Gb|-------------------------|
Db|----1010-9-------99-10---|
Ab|-------------------------|
Eb|-11--------11111---------|

Gb|------------9-------------9------|
Db|------99-10---10----9-9-10-109---|
Ab|---------------------------------|
Eb|-1-55----------------------------|

Gb|-------------------------|
Db|----1010-9-------99-10---|
Ab|-------------------------|
Eb|-11--------11111---------| 

Gb|------9-----9-----9-----9-----9-----9---|
Db|-------109---109---109---109---109------|
Ab|---------10----10----10----10----10-----|
Eb|-1-55-----------------------------------|

Gb|-------------------------|
Db|----1010-9-------99-10---|
Ab|-------------------------|
Eb|-11--------11111---------|

Gb|-----------9------9---|
Db|------99-10---9~10----|
Ab|----------------------|
Eb|-1-55-----------------|


Bridge 2 (02:22 – 02:57) 
Gb|-------------------------------------|
Db|-------------------------------------|
Ab|-------------------------------------| x4
Eb|-1111111111111111-5555555555555555---|


Verse 3 (02:57 – 03:38) 

Gb|-------------------------------------|
Db|-------------------------------------|
Ab|-------------------------------------| x4
Eb|-1111111111111111-5555555555555555---|

G|----------------|
D|-10-8-7---------|
A|----------------|
E|---------1~~~---|
Suggest correction
What's this?
You can suggest a correction to this tab. Community and Mods will review your correction and vote to approve or reject it.
comments
We did not receive enough feedback on this tab! Please rate:
print report bad tab
1 2 3 4 5
guest
You may want to rate the tab now too:
select rating
Please do not post tabs as comments. Select "correction" instead!