Oops, an error
Loading. Please wait.

The Kennedy Curse Tab

version 3
version 3

Whole song

Interactive

1,109 views 1 this week
2 commentsread comments
1 2 3 4 5
x 6
add to favorites
launch autoscroll
font size
0
reset
how to read this tab
guitar tuner
×
Best way to learn
"The Kennedy Curse"
Autoscroll
slow
fast
+/-
esc
set tempo
stop
Author
Alexisonfire

This is my favorite song on the album. Alexisonfire is a great band and more
people should listen to them.

Tuning: dadgbe
Intro
\=slide down
/=slide up
~= let ring
()= Palm Mute

e---------------------------------------------------------------------|
b---------------------------------------------------------------------|
g---------------------------------------------------------------------|
d---1---1~-1/----6--6--------1---1~-1/----6--6------------------------|
a--2-2--2~-1/--66-6--6------2-2--2~-1/--66-6--6-----------------------|
d-2---2-2~-1/-6----6--6--0-2---2-2~-1/-6----6--6----------------------|

Intro Part II
Guitar I
e---------------------------------------------------------------------|
b---------------------------------------------------------------------|
g---------------------------------------------------------------------|
d-(2)(2)-2~-2/(6)(6)6~------------------------------------------------|
a-(2)(2)-2~-2/(6)(6)6~------------------------------------------------|
d-(2)(2)-2~-2/(6)(6)6~------------------------------------------------|

Guitar II
e--------------------0\0----------------------------------------------|
b--------------------5\4----------------------------------------------|
g---------------------------------------------------------------------|
d-(2)(2)-2~-2/(6)(6)--------------------------------------------------|
a-(2)(2)-2~-2/(6)(6)--------------------------------------------------|
d-(2)(2)-2~-2/(6)(6)--------------------------------------------------|

Verse I
Guitar I
e---------------------------------------------------------------------|
b---------------------------------------------------------------------|
g---------------------------------------------------------------------|
d---------------------------------------------------------------------|
a-(6)(6)6---7-9-7-6-7-------------------------------------------------|
d-(6)(6)-(0)----------------------------------------------------------|

Guitar II
e---------------------------------------------------------------------|
b---------------------------------------------------------------------|
g---------------------------------------------------------------------|
d-22222222222222/666666666666666\22222222222222/66666666666666--------|
a-22222222222222/666666666666666\22222222222222/66666666666666--------|
d-22222222222222/666666666666666\22222222222222/66666666666666--------|

Verse Part II
Both Guitars
Play Once
e---------------------------------------------------------------------|
b---------------------------------------------------------------------|
g-888/999/111/131313\11111\999\888------------------------------------|
d-xxx/xxx/xxx/xxxxxx\xxxxx\xxx\xxx-22222222222-1111\999------8--------|
a-666/777/999/101010\99999\777\666-22222222222-xxxx\xxx(0)(0)x--------|
d-000-000-000-000000-00000-000-000-22222222222-9999\777(0)(0)6--------|

and then

Guitar I
e---------------------------------------------------------------------|
b---------------------------------------------------------------------|
g------------11111\999\888-------------11111111-11-9-8----------------|
d-2222222222-xxxxx\xxx\xxx-22222222222-xxxxxxxx-x--x-x----------------|
a-2222222222-99999\777\666-22222222222-99999999-9--7-6----------------|
d-2222222222-00000-000-000-22222222222-00000000-----------------------|

Guitar II
e---------------------------------------------------------------------|
b---------------------------------------------------------------------|
g----------------------------------------------11-9-8-----------------|
d-222222222/6666666666666-22222222222/66666666-x--x-x-----------------|
a-222222222/6666666666666-22222222222/66666666-9--7-6-----------------|
d-222222222/6666666666666-22222222222/66666666------------------------|

Chorus(at least i think it's the chorus)
Guitar I
e---------------------------------------------------------------------|
b---------------------------------------------------------------------|
g---------------------------------------------------------------------|
d---------------------------------------------------------------------|
a-(6)(6)6(6)(6)7(6)(6)9(6)(6)7(6)(6)6---------------------------------|
d-(6)(6)-(6)(6)-(6)(6)-(6)(6)-(6)(6)----------------------------------|

Guitar II
e---------------------------------------------------------------------|
b---------------------------------------------------------------------|
g---------------------------------------------------------------------|
d-2222222222222222/6666666666666666-----------------------------------|
a-2222222222222222/6666666666666666-----------------------------------|
d-2222222222222222/6666666666666666-----------------------------------|
 (Palm Muted)

Breakdown Part 1
Guitar I
e-------------------------------------          e--------------------|
b-7-4-5-4-5-4-5-4-7-4-5-4-5-4-5-4-----          b--------5/7~--------|
g-------------------------------------          g--------------------|
d-------------------------------------          d--------------------|
a-------------------------------------          a--------------------|
d-------------------------------------          d--------------------|

Guitar II
e--------------------------------------------------------------------|
b--------------------------------------------------------------------|
g--------------------------------------------------------------------|
d--------------------------------------------------------------------|
a-6~-7-6-7-6-2-3-3/5\3-2---6~-7-6-7-6-2-3-3/5\3-2~\------------------|
d--------------------------------------------------------------------|

Breakdown Part II
Guitar I
e--------------------------------------------------------------------|
b--------------------------------------------------------------------|
g--------------------------------------------------------------------|
d-22--22222--2/666---66666--6\22--22222--2/666--66666----------------|
a-22--22222--2/666---66666--6\22--22222--2/666--66666----------------|
d-22--22222--2/666---66666--6\22--22222--2/666--66666----------------|

Guitar II(listen closely and you'll hear it)
e--------------------------------------------------------------------|
b--4-----------4-----5-5---5-5-----4-----------4---------------------|
g-8-8-8-8---8-8-----8-8-8-8-8-8---8-8-8-8---8-8----------------------|
d--------------------------------------------------------------------|
a-make sure notes blend----------------------------------------------|
d--------------------------------------------------------------------|

Srum when you hear the high pitched scream at end of breakdown
e-0000000------------------------------------------------------------|
b-5555555------------------------------------------------------------|
g-8888888------------------------------------------------------------|
d--------------------------------------------------------------------|
a--------------------------------------------------------------------|
d--------------------------------------------------------------------|

Verse II
Both Guitars
e--------------------------------------------------------------------|
b--------------------------------------------------------------------|
g--------------------------------------------------------------------|
d-22222222222222222/666666666666666----------------------------------|
a-22222222222222222/666666666666666----------------------------------|
d-22222222222222222/666666666666666----------------------------------|

then guitar II goes into
e--------------------------------------------------------------------|
b-7-4-5-4-5-4-5-4-7-4-5-4-5-4-5-4-7-4-5-4-5-4-5-4-7-4-5-4-5-4-5-4----|
g--------------------------------------------------------------------|
d--------------------------------------------------------------------|
a--------------------------------------------------------------------|
d--------------------------------------------------------------------|

Verse Part IV
e--------------------------------------------------------------------|
b--------------------------------------------------------------------|
g--------------------------------------------------------------------|
d-22222222222222222222222222222222/6666666666666666666666666666------|
a-22222222222222222222222222222222/6666666666666666666666666666------|
d-22222222222222222222222222222222/6666666666666666666666666666------|

Ending
Both Guitars
e---------------------------------------------------------------------|
b-7-4-5-4--------7-4-5-4-----7-4-5-4----------------------------------|
g---------9-7-6---------9-7-6-------9-7-6-----------------------------|
d-----------------------------------------2222222222222222/6666666666-|
a-----------------------------------------2222222222222222/6666666666-|
d-----------------------------------------2222222222222222/6666666666-|

Ending Cont.
e---------------------------------------------------------------------|
b---------------------------------------------------------------------|
g---------------------------------------------------------------------|
d-66666(6)(6)-------(6)(6)-------(6)(6)(6)---------222222222222222/66-|
a-66666(6)(6)7{bend}(6)(6)7{bend}(6)(6)(6)7{bend}6-222222222222222/66
d-66666(6)(6)-------(6)(6)-------(6)(6)(6)---------222222222222222/66

Ending Cont.
e--------------------------------------------------------------------|
b--------------------------------------------------------------------|
g---------------11-9-8-----------------------------------------------|
d-6666666666666-x--x-x-2~--------------------------------------------|
a-6666666666666-9--7-6-2~--------------------------------------------|
d-6666666666666--------2~--------------------------------------------|

Im pretty this tab is about 99% correct. everybody else that did this tab didnt do all 
the song. Here's the best version out there right now.
Suggest correction
comments
print report bad tab
2 comments total.
0 reply
a-o-K 70 Jul 20, 2004 08:00 PM

Well done my friend!

0 reply
bummerdude 10 Dec 03, 2004 07:00 PM

Im goin down the shop to buy ten fags, would you like some crisps or a drink?
what you doin you cant go out like that you've got tin foil on your head!?!
its not tin foil its my new skin.

Anyway nice tab dude

guest
You may want to rate the tab now too:
select rating
Wanna post a correction for this tab? Suggest correction