Oops, an error
Loading. Please wait.

This Could Be Anywhere Bass Tab

version 1
version 1

Whole song

Interactive

3,213 views 1 this week
no commentswrite comment
1 2 3 4 5
please rate
add to favorites
launch autoscroll
font size
0
reset
guitar tuner
Autoscroll
slow
fast
+/-
esc
set tempo
stop
Help us to improve Ultimate-Guitar.com Take our survey!
×
Author
Difficulty
Tuning
novice
C G C F A D
Intro: Each time the guitar strums you play an A4.

F:----------|
C:----------|
G:----6-----|
C:----------|

Verse: Play along with the same timing as the guitar.

F:---------------|------------------------------|-------------|--------------------|
C:---------------|------------------------------|-------------|--------------------|
G:-5-5-5-5-5-5---|-5----5----5--5----5----5-----|--5-5-5-5-5--|-5-5-5~~7----7-7----|
C:---------------|------------------------------|-------------|--------------------|

Repeat Intro: 

F:----------|
C:----------|
G:----6-----|
C:----------|

Verse: Play along with the same timing as the guitar.

F:---------------|------------------------------|-------------|--------------------|
C:---------------|------------------------------|-------------|--------------------|
G:-5-5-5-5-5-5---|-5----5----5--5----5----5-----|--5-5-5-5-5--|-5-5-5~~7----7-7----|
C:---------------|------------------------------|-------------|--------------------|

Repeat Intro: 

F:----------|
C:----------|
G:----6-----|
C:----------|

Verse: Play along with the same timing as the guitar.

F:---------------|------------------------------|-------------|--------------------|
C:---------------|------------------------------|-------------|--------------------|
G:-5-5-5-5-5-5---|-5----5----5--5----5----5-----|--5-5-5-5-5--|-5-5-5~~7----7-7----|
C:---------------|------------------------------|-------------|--------------------|

Chorus: Play along at the same speed as the guitar.

F:---------|---------|----------|----------|----------|
C:---------|---------|----------|----------|----------|
G:-6(x12)--|--5(X12)-|----------|-5(X6)----|-7(X6)----|
C:---------|---------|-8(x12)---|----------|------- --|

F:---------|---------|----------|----------|----------|
C:---------|---------|----------|----------|----------|
G:-6(x12)--|--5(X12)-|----------|-5(X6)----|-7(X4)----|
C:---------|---------|-8(x12)---|----------|----------|

Repeat Intro: 

F:----------|
C:----------|
G:----6-----|
C:----------|

Verse: Play along with the same timing as the guitar.

F:---------------|------------------------------|-------------|--------------------|
C:---------------|------------------------------|-------------|--------------------|
G:-5-5-5-5-5-5---|-5----5----5--5----5----5-----|--5-5-5-5-5--|-5-5-5~~7----7-7----|
C:---------------|------------------------------|-------------|--------------------|

Repeat Intro: 

F:----------|
C:----------|
G:----6-----|
C:----------|

Verse: Play along with the same timing as the guitar.

F:---------------|------------------------------|-------------|--------------------|
C:---------------|------------------------------|-------------|--------------------|
G:-5-5-5-5-5-5---|-5----5----5--5----5----5-----|--5-5-5-5-5--|-5-5-5~~7----7-7----|
C:---------------|------------------------------|-------------|--------------------|

Repeat Intro: 

F:----------|
C:----------|
G:----6-----|
C:----------|

Verse: Play along with the same timing as the guitar.

F:---------------|------------------------------|-------------|--------------------|
C:---------------|------------------------------|-------------|--------------------|
G:-5-5-5-5-5-5---|-5----5----5--5----5----5-----|--5-5-5-5-5--|-5-5-5~~7----7-7----|
C:---------------|------------------------------|-------------|--------------------|

Chorus: Play along at the same speed as the guitar.

F:---------|---------|----------|----------|----------|
C:---------|---------|----------|----------|----------|
G:-6(x12)--|--5(X12)-|----------|-5(X6)----|-7(X6)----|
C:---------|---------|-8(x12)---|----------|------- --|

F:---------|---------|----------|----------|----------|
C:---------|---------|----------|----------|----------|
G:-6(x12)--|--5(X12)-|----------|-5(X6)----|-7(X4)----|
C:---------|---------|-8(x12)---|----------|----------|

Repeat Intro: 

F:----------|
C:----------|
G:----6-----|
C:----------|

Verse: Play along with the same timing as the guitar.

F:---------------|------------------------------|-------------|--------------------|
C:---------------|------------------------------|-------------|--------------------|
G:-5-5-5-5-5-5---|-5----5----5--5----5----5-----|--5-5-5-5-5--|-5-5-5~~7----7-7----|
C:---------------|------------------------------|-------------|--------------------|

Repeat Intro: 

F:----------|
C:----------|
G:----6-----|
C:----------|

Verse: Play along with the same timing as the guitar.

F:---------------|------------------------------|-------------|--------------------|
C:---------------|------------------------------|-------------|--------------------|
G:-5-5-5-5-5-5---|-5----5----5--5----5----5-----|--5-5-5-5-5--|-5-5-5~~7----7-7----|
C:---------------|------------------------------|-------------|--------------------|

Repeat Intro: 

F:----------|
C:----------|
G:----6-----|
C:----------|

Verse: Play along with the same timing as the guitar.

F:---------------|------------------------------|-------------|--------------------|
C:---------------|------------------------------|-------------|--------------------|
G:-5-5-5-5-5-5---|-5----5----5--5----5----5-----|--5-5-5-5-5--|-5-5-5~~7----7-7----|
C:---------------|------------------------------|-------------|--------------------|





Chorus: Play along at the same speed as the guitar.

F:---------|---------|----------|----------|----------|
C:---------|---------|----------|----------|----------|
G:-6(x12)--|--5(X12)-|----------|-5(X6)----|-7(X6)----|
C:---------|---------|-8(x12)---|----------|------- --|

F:---------|---------|----------|----------|----------|
C:---------|---------|----------|----------|----------|
G:-6(x12)--|--5(X12)-|----------|-5(X6)----|-7(X4)----|
C:---------|---------|-8(x12)---|----------|----------|

Bridge: Play an C4 every time the guitar plays one.

F:----------|---------|---------------|----------|---------|---------------|
C:----------|---------|---------------|----------|---------|---------------|
G:----------|---------|---------------|----------|---------|---------------|
C:---4-4-4--|----4----|------4-4-4----|---4-4-4--|----4----|------4-4-4----|

Bridge (continued): Play along with the guitar.

F:----------------------|------------------------|----------------------|
C:----------------------|------------------------|----------------------|
G:--6-6-6-6------6-6~~~~|~~~~~6-------------6----|--6-6-6-6------6-6----|
C:----------------------|-----------4-4----------|----------------------|

F:----------|---------|---------------|
C:----------|---------|---------------|
G:----------|---------|---------------|
C---4-4-4---|----4----|------4-4-4----|

Bridge (continued):

F:----------|---------|---------------|
C:----------|---------|---------------|
G:----------|---------|---------------|  X2
C---4-4-4---|----4----|------4-4-4----|

Chorus: Play along at the same speed as the guitar.

F:---------|---------|----------|----------|----------|
C:---------|---------|----------|----------|----------|
G:-6(x12)--|--5(X12)-|----------|-5(X6)----|-7(X6)----|
C:---------|---------|-8(x12)---|----------|------- --|

F:---------|---------|----------|----------|----------|
C:---------|---------|----------|----------|----------|
G:-6(x12)--|--5(X12)-|----------|-5(X6)----|-7(X4)----|
C:---------|---------|-8(x12)---|----------|----------|

Outro: Same as the Intro/Repeat Intro.

F:----------|
C:----------|
G:----6-----|
C:----------|
Suggest correction
Give kudos to tab author, rate the tab!
1 2 3 4 5
comments
print report bad tab
guest
You may want to rate the tab now too:
select rating
Wanna post a correction for this tab? Suggest correction