Oops, an error
Loading. Please wait.

This Could Be Anywhere Tab

version 1
version 1

Interactive

17,496 views 3 this week
10 commentsread comments
1 2 3 4 5
x 7
add to favorites
launch autoscroll
font size
0
reset
how to read this tab
guitar tuner
Autoscroll
slow
fast
+/-
esc
set tempo
stop
Help us to improve Ultimate-Guitar.com Take our survey!
×
Author
Intro
|--------------------------------------------------|
|--------------------------------------------------|
|--------------------------------------------------|
|------11---11-------------------------------------|
|------11---11-------------------------------------|
|-------9----9-------------------------------------|

Verse
|-----------------|-------------------|-----------------|--------------|
|-----9-----------|-----9-------7-5-4-|-----9-----------|-----7-9-10-9-|
|-------6-8-9-8-6-|--------6-8-9------|-------6-8-9-8-6-|--------------|
|-----------------|-------------------|-----------------|--------------|
|-----------------|-------------------|-----------------|--------------|
|-----------------|-------------------|-----------------|--------------|

Pre-Chorus
|--------------------------------------------------|
|--------------------------------------------------|
|--------------------------------------------------|    x2
|------11---11-------------------------------------|
|------11---11-------------------------------------|
|-------9----9-------------------------------------|

|-------5-4-2---------5-4-2------------------------|
|-------------4-4/5---------4-4/5/12---------------|
|-----6-------------6------------------------------|
|--------------------------------------------------|
|--------------------------------------------------|
|--------------------------------------------------|

Chorus
|--------------------------------------------------|
|--------------------------------------------------|
|-----7---7-7-7--7-7-7--7-7-7--7-7-7--7-7----------|
|-----7---7-7-7--7-7-7--7-7-7--5-5-5--7-7----------|
|-----5---5-5-5--5-5-5--5-5-5--5-5-5--5-5----------|
|--------------------------------------------------|

|------------------------------------------------------------|
|------------------------------------------------------------|
|-3---3-3-3--3-3-3--3-3-3--3-3-------------------------------|
|-3---3-3-3--3-3-3--3-3-3--3-3---4---4-4-4--4-4-4--4-4-4--4-4|
|-1---1-1-1--1-1-1--1-1-1--1-1---4---4-4-4--4-4-4--4-4-4--4-4|
|--------------------------------2---2-2-2--2-2-2--2-2-2--2-2|

|--------------------------------------------------|
|--------------------------------------------------|
|-3---3-3-3--3-3-3--3-3-3--3-3-3-------------------|
|-3---3-3-3--3-3-3--3-3-3--3-3-3-------------------|
|-1---1-1-1--1-1-1--1-1-1--1-1-1-------------------|
|--------------------------------------------------|

Breakdown
|--------------------------------------------------|
|--------------------------------------------------|
|----10-/-7----12-/-7----9-/10---10-/-7------------|
|-----x-/-x-----x-/-x----x---x----x-/-x------------|
|-----8-/-5----10-/-5----7-/-8----8-/-5------------|
|--------------------------------------------------|

|--------------------------------------------------|
|--------------------------------------------------|
|--------------------------------------------------|
|-----7---8-(8)-8-/-5------------------------------|
|-----7---8-(6)-8-/-5------------------------------|
|-----5-/-6-(6)-6-/-3------------------------------|

|---------------------| 
|---------------------|
|---------------------|
|----7----------------|
|----7----------------|
|----5----------------|
repeat a lot--^

Chorus 
Suggest correction
comments
print report bad tab
10 comments total. Showing first comments.
0 reply
Ibanez_723 10 Aug 26, 2006 11:00 PM

awesome tab better then ver2 nice man

0 reply
Blackshadow442 82 Sep 04, 2006 10:00 PM

this is a damned good tab for god sakes! it deserves a 5 or so!

0 reply
Blackshadow442 82 Sep 04, 2006 10:02 PM

er, the chorus is a bit off but w/e!

guest
You may want to rate the tab now too:
select rating
Wanna post a correction for this tab? Suggest correction