Oops, an error
Loading. Please wait.

This Could Be Anywhere Bass Tab

version 2
version 2

Whole song

Interactive

8,610 views 3 this week
5 commentsread comments
1 2 3 4 5
accurate
x 7
add to favorites
launch autoscroll
font size
0
reset
guitar tuner
Autoscroll
slow
fast
+/-
esc
set tempo
stop
Help us to improve Ultimate-Guitar.com Take our survey!
×
Author
100% correct, flat tuning

Intro (00:00 – 00:18) 

Gb|-----------------------| 
Db|-----------------------|
Ab|-5-5----5-5----5-5-5---|
Eb|-----------------------|

Verse 1 (00:18 – 00:57)

Gb|----------------------| 
Db|----------------------|
Ab|----------------------|
Eb|-6---6---6---6--/8----|

Gb|-------| 
Db|-------|
Ab|-5-5---|
Eb|-------|

Gb|----------------------| 
Db|----------------------|
Ab|----------------------|
Eb|-6---6---6---6--/8----|

Gb|-------| 
Db|-------|
Ab|-5-5---|
Eb|-------|

Gb|----------------------| 
Db|----------------------|
Ab|----------------------|
Eb|-6---6---6---6--/8----|

Chorus (00:57 – 01:30)

Gb|-------------------------------------------------------------------------|
Db|-------------------------------------------------------------------------|
Ab|-5555--55-55-5-55--------------------------------------------------------| x2 
Eb|------------------6666--66-66-6-66-3333--33-33-3-33-6666--6/9---9-9--9---|

Gb|---------| 
Db|---------|
Ab|-5-5-5---|
Eb|---------|

Verse 2 (01:30 – 02:09)

Gb|----------------------| 
Db|----------------------|
Ab|----------------------|
Eb|-6---6---6---6--/8----|

Gb|-------| 
Db|-------|
Ab|-5-5---|
Eb|-------|

Gb|----------------------| 
Db|----------------------|
Ab|----------------------|
Eb|-6---6---6---6--/8----|

Gb|-------| 
Db|-------|
Ab|-5-5---|
Eb|-------|

Gb|----------------------| 
Db|----------------------|
Ab|----------------------|
Eb|-6---6---6---6--/8----|

Chorus 2 (02:09 – 02:39)

Gb|-------------------------------------------------------------------------|
Db|-------------------------------------------------------------------------|
Ab|-5555--55-55-5-55--------------------------------------------------------| x2 
Eb|------------------6666--66-66-6-66-3333--33-33-3-33-6666--6/9---9-9--9---|

Gb|---------| 
Db|---------|
Ab|-5-5-5---|
Eb|---------|

Bridge (02:39 – 03:06)

Gb|------------------------| 
Db|------------------------|
Ab|-5-5----5-5--5-5-5--5---|
Eb|------------------------|

Gb|-------------------------| 
Db|-------------------------|
Ab|-5-5---------------------|
Eb|--------6--66-3-33-333---|

Gb|------------------------| 
Db|------------------------|
Ab|-5-5----5-5--5-5-5--5---|
Eb|------------------------|

Gb|-------------------------| 
Db|-------------------------|
Ab|-5-5---------------------|
Eb|--------6--66-3-33-333---|

Gb|----------------------------------------|
Db|----------------------------------------|
Ab|-5-5-5-5\/55-5-55\/5-5-5-5--------------| x2 
Eb|---------------------------6--6-3-333---|

Interlude (03:06 – 03:14)

N/A

Bridge 2 (03:14 – 03:26)

Gb|---------------------------------------------| 
Db|---------------------------------------------|
Ab|-55-5-55-55-5-5-5-55-5-55-5------------------|
Eb|----------------------------6--66-3-33-333---|

Gb|--------------------| 
Db|--------------------|
Ab|-55-5-55-55-5-5-5---|
Eb|--------------------|

Chorus 3 (03:26 – 04:03)

Gb|-------------------------------------------------------------------------|
Db|-------------------------------------------------------------------------|
Ab|-5555--55-55-5-55--------------------------------------------------------| x2 
Eb|------------------6666--66-66-6-66-3333--33-33-3-33-6666--6/9---9-9--9---|

Gb|---------| 
Db|---------|
Ab|-5-5-5---|
Eb|---------|
Suggest correction
What's this?
You can suggest a correction to this tab. Community and Mods will review your correction and vote to approve or reject it.
comments
print report bad tab
5 comments total. Showing first comments.
0 reply
unerdanielson 66 wrote on December 3 2006, 12:56 pm

Tab seems fine except for one thing, why did you tab it in flats there's no need it can easily be played in standard

0 reply
kryptonite22 2,832 wrote on March 3 2007, 03:24 pm

alexis do use flats though. but most can be done in standard.

0 reply
SpeedMetal_182 11 wrote on April 22 2007, 07:49 pm

Inaccurate, Wrong timing

guest
You may want to rate the tab now too:
select rating
Please do not post tabs as comments. Select "correction" instead!