Oops, an error
Loading. Please wait.

This Could Be Anywhere Tab

version 2
version 2

Interactive

45,714 views 12 this week
14 commentsread comments
1 2 3 4 5
x 15
add to favorites
launch autoscroll
font size
0
reset
how to read this tab
guitar tuner
×
Best way to learn
"This Could Be Anywhere"
Autoscroll
slow
fast
+/-
esc
set tempo
stop
Difficulty
novice
Tuning: 1/2 step down, Drop C# (Db) --- C# G# C# F# A# D#

[Main Riff/Intro]
eb|--------------|-------------------------------------------------------------|
Bb|--------------|-------------------------------------------------------------|
Gb|--------------|-------------------------------------------------------------|
Db|--0-0----0-0--|--0-0-0------------------------------------------------------|
Ab|--0-0----0-0--|--0-0-0------------------------------------------------------|
Db|--0-0----0-0--|--0-0-0------------------------------------------------------|

[Riff A]
eb|---------------------------------------------------------------------------|
Bb|--10-----------------10------------------10--------------------11----------|
Gb|------7-9--10-9-7-------7-9-10/12\10\9-------7-9--10-9-7-10/12----14~~-----|
Db|---------------------------------------------------------------------------|
Ab|---------------------------------------------------------------------------|
Db|---------------------------------------------------------------------------|

eb|---------------------------------------------------------------------------|
Bb|---------------------------------------------------------------------------|
Gb|---------------------------------------------------------------------------|
Db|--0-0----0-0---------------------------------------------------------------|
Ab|--0-0----0-0---------------------------------------------------------------|
Db|--0-0----0-0---------------------------------------------------------------|

[Riff B]
eb|-----------------------------------------------|
Bb|------11-10--8----------------11-10-8----------|
Gb|--7-7----------9-10 10~---7-7---------9-10/17--|
Db|-----------------------------------------------|
Ab|-----------------------------------------------|
Db|-----------------------------------------------|

[Chorus]
eb|---------------------------------------------------------------------------|
Bb|---------------------------------------------------------------------------|
Gb|---------------------------------------------------------------------------|
Db|---0---8---5---8--10-------------------------------------------------------|
Ab|---0---8---5---8--10-------------------------------------------------------|
Db|---0---8---5---8--10-------------------------------------------------------|

[Bridge]
eb|---------------------------------------------------------------------------|
Bb|---------------------------------------------------------------------------|
Gb|--10-7-----12-7--7/10-10-10----10-7----------------------------------------|
Db|--10-7-----12-7--7/10-10-10----10-7--8---3---------------------------------|
Ab|--8--5-x-x-10-5--5/8--8--8-----8--5--8---3---------------------------------|
Db|-------x-x---------------------------8---3---------------------------------|

eb----------------------------------------------------------------------------|
Bb|---------------------------------------------------------------------------|
Gb|--7------------------------------------------------------------------------|
Db|--7----8--3----------------------------------------------------------------|
Ab|--5----8--3----------------------------------------------------------------|
Db|-------8--3----------------------------------------------------------------|



************************************

| b  Bend
| /  Slide up
| \  Slide down
| ~  Vibrato
| x  Dead note
|    

************************************
Suggest correction
comments
print report bad tab
14 comments total. Showing first comments.
0 reply
NirvanaFan101 31 Aug 22, 2006 08:41 AM

Pretty good tab.

0 reply
Ibanez_723 10 Aug 26, 2006 06:58 PM

nice tab but i think its higher

0 reply
the k-train 10 Aug 28, 2006 10:18 AM

tab is good but the essay is better :)

guest
You may want to rate the tab now too:
select rating
Wanna post a correction for this tab? Suggest correction