Oops, an error
Loading. Please wait.

This Could Be Anywhere Bass Tab

version 3
version 3

Whole song

Interactive

7,262 views 9 this week
3 commentsread comments
1 2 3 4 5
excellent!
x 4
add to favorites
launch autoscroll
font size
0
reset
guitar tuner
Autoscroll
slow
fast
+/-
esc
set tempo
stop
Help us to improve Ultimate-Guitar.com Take our survey!
×
Author
-----------------------------------------------------------------------------
                      This Could Be Anywhere-Alexisonfire
-----------------------------------------------------------------------------


Standard Tuning

Intro (00:00 – 00:18)

G|-----------------------|
D|-----------------------|
A|-4-4----4-4----4-4-4---|
E|-----------------------|

Verse 1

G|----------------------|
D|----------------------|
A|----------------------|
E|-5---5---5---5--/7----|

G|-------|
D|-------|
A|-4-4---|
E|-------|

G|----------------------|
D|----------------------|
A|----------------------|
E|-5---5---5---5--/7----|

G|-------|
D|-------|
A|-4-4---|
E|-------|

G|----------------------|
D|----------------------|
A|----------------------|
E|-5---5---5---5--/7----|

Chorus

G|-------------------------------------------------------------------------|
D|-------------------------------------------------------------------------|
A|-4444--44-44-4-44--------------------------------------------------------|
E|------------------5555--55-55-5-55-2222--22-22-2-22-5555--5/7---7-7--7---| x2

G|---------|
D|---------|
A|-4-4-4---|
E|---------|

Verse

G|----------------------|
D|----------------------|
A|----------------------|
E|-5---5---5---5--------|

G|-------|
D|-------|
A|-4-4---|
E|-------|

G|----------------------|
D|----------------------|
A|----------------------|
E|-5---5---5---5--------|

G|-------|
D|-------|
A|-5-5---|
E|-------|

G|----------------------|
D|----------------------|
A|----------------------|
E|-5---5---5---5--------|

Chorus

G|-------------------------------------------------------------------------|
D|-------------------------------------------------------------------------|
A|-4444--44-44-4-44--------------------------------------------------------|
E|------------------5555--55-55-5-55-2222--22-22-2-22-5555--5/7---7-7--7---|

G|---------|
D|---------|
A|-4-4-4---|
E|---------|

Bridge

G|------------------------|
D|------------------------|
A|-4-4----4-4--4-4-4--4---|
E|------------------------|

G|-------------------------|
D|-------------------------|
A|-4-4---------------------|
E|--------5--55-2-22-222---|

G|------------------------|
D|------------------------|
A|-4-4----4-4--4-4-4--4---|
E|------------------------|

G|-------------------------|
D|-------------------------|
A|-4-4---------------------|
E|--------5--55-2-22-222---|

G|----------------------------------------|
D|----------------------------------------|
A|-4-4-4-4\/44-4-44\/4-4-4-4--------------| x2
E|---------------------------5--5-2-222---|

Interlude (03:06 – 03:14)


Bridge 2

G|---------------------------------------------|
D|---------------------------------------------|
A|-44-4-44-44-4-4-4-44-4-44-4------------------|
E|----------------------------5--55-2-22-222---|

G|--------------------|
D|--------------------|
A|-44-4-44-44-4-4-4---|
E|--------------------|

Chorus

G|-------------------------------------------------------------------------|
D|-------------------------------------------------------------------------|
A|-4444--44-44-4-44--------------------------------------------------------| x2
E|------------------5555--55-55-5-55-2222--22-22-2-22-5555--5/7---7-7--7---|

G|---------|
D|---------|
A|-4-4-4---|
E|---------|

This is the standard tuning version of version 2
Thanks everyone help or moans or anything else comment me.
Suggest correction
comments
print report bad tab
3 comments total.
0 reply
KINGJOSHP 62 wrote on November 2 2009, 12:10 pm

I Know This Guy

+1 reply
nicklopeke 31 wrote on February 8 2010, 08:12 pm

last note of chorus is wrong. its E7, not E8

0 reply
ashbass 30 wrote on January 5 2012, 11:26 am

Cheers dude I'll get it changed

guest
You may want to rate the tab now too:
select rating
Please do not post tabs as comments. Select "correction" instead!