Oops, an error
Loading. Please wait.

This Could Be Anywhere Tab

version 4
version 4

Interactive

2,734 views 1 this week
1 commentread comment
1 2 3 4 5
please rate
add to favorites
launch autoscroll
font size
0
reset
how to read this tab
guitar tuner
Autoscroll
slow
fast
+/-
esc
set tempo
stop
Help us to improve Ultimate-Guitar.com Take our survey!
×
Contributor
Difficulty
Toffees 49
novice
Hey guys(and girls) ive seen a few tabs for this song floatin around but none of em have 
so ill try my best.  I wont include strum patterns otherwise ti will be huge, its not 
to find out just listen to the song ;).

Tuning: D-flat - eb
                 Bb
                 Gb
                 Db
                 Ab
                 Db

Intro

eb|--------------|-------------------------------------------------------------|
Bb|--------------|-------------------------------------------------------------|
Gb|--------------|-------------------------------------------------------------|
Db|--0-0----0-0--|--0-0-0------------------------------------------------------|
Ab|--0-0----0-0--|--0-0-0------------------------------------------------------|
Db|--0-0----0-0--|--0-0-0------------------------------------------------------|

Verse

Guitar 1
eb|---------------------------------------------------------------------------|
Bb|--10-----------------10------------------10--------------------10h11p10~---|
Gb|------7-9--10-9-7-------7-9-10/12\10\9-------7-9--10-9-7-10/12-------------|
Db|---------------------------------------------------------------------------|
Ab|---------------------------------------------------------------------------|
Db|---------------------------------------------------------------------------|

Guitar 2 (Listen for timing)
eb|---------------------------------------------------------------------------|
Bb|---------------------------------------------------------------------------|
Gb|---------------------------------------------------------------------------|
Db|---8~-----------------8~------------------8~--------------8~---------------|
Ab|---8~-----------------8~------------------8~--------------8~---------------|
Db|---8~-----------------8~------------------8~--------------8~---------------|

Guitars 1&2
eb|---------------------------------------------------------------------------|
Bb|---------------------------------------------------------------------------|
Gb|---------------------------------------------------------------------------|
Db|--0-0----0-0---------------------------------------------------------------|
Ab|--0-0----0-0---------------------------------------------------------------|
Db|--0-0----0-0---------------------------------------------------------------|

Verse Cont.

Guitar 1
eb|--------------------------------------------------------------|
Bb|------11-10--8----------------11-10-8-------------------------|
Gb|----7----------9-9-10-10-10/7----------9-9-10-10/17-17-17-----|
Db|--------------------------------------------------------------|
Ab|--------------------------------------------------------------|
Db|--------------------------------------------------------------|

Guitar 2 (Listen for timing)
eb|---------------------------------------------------------------------------|
Bb|---------------------------------------------------------------------------|
Gb|---------------------------------------------------------------------------|
Db|---8~-----------------8~------------------8~--------------8~---------------|
Ab|---8~-----------------8~------------------8~--------------8~---------------|
Db|---8~-----------------8~------------------8~--------------8~---------------|

Guitars 1&2
eb|---------------------------------------------------------------------------|
Bb|---------------------------------------------------------------------------|
Gb|---------------------------------------------------------------------------|
Db|--0-0----0-0---------------------------------------------------------------|
Ab|--0-0----0-0---------------------------------------------------------------|
Db|--0-0----0-0---------------------------------------------------------------|

Guitar 1
eb|---------------------------------------------------------------------------|
Bb|--10-----------------10------------------10--------------------10h11p10~---|
Gb|------7-9--10-9-7-------7-9-10/12\10\9-------7-9--10-9-7-10/12-------------|
Db|---------------------------------------------------------------------------|
Ab|---------------------------------------------------------------------------|
Db|---------------------------------------------------------------------------|

Guitar 2 (Listen for timing)
eb|---------------------------------------------------------------------------|
Bb|---------------------------------------------------------------------------|
Gb|---------------------------------------------------------------------------|
Db|---8~-----------------8~------------------8~--------------8~---------------|
Ab|---8~-----------------8~------------------8~--------------8~---------------|
Db|---8~-----------------8~------------------8~--------------8~---------------|

Chorus

Guitars 1&2 (listen for strum pattern)x2
eb|---------------------------------------------------------------------------|
Bb|---------------------------------------------------------------------------|
Gb|---------------------------------------------------------------------------|
Db|---0---8---5---8--10-------------------------------------------------------|
Ab|---0---8---5---8--10-------------------------------------------------------|
Db|---0---8---5---8--10-------------------------------------------------------|

Note:
At 1:18 guitar 1 comes in with
eb|---------------------------------------------------------------------------|
Bb|----------10h11p10\--------------------------------------------------------|
Gb|---/10-12------------------------------------------------------------------|
Db|---------------------------------------------------------------------------|
Ab|---------------------------------------------------------------------------|
Db|---------------------------------------------------------------------------|

Guitars 1&2
eb|---------------------------------------------------------------------------|
Bb|---------------------------------------------------------------------------|
Gb|---------------------------------------------------------------------------|
Db|--0-0----0-0---------------------------------------------------------------|
Ab|--0-0----0-0---------------------------------------------------------------|
Db|--0-0----0-0---------------------------------------------------------------|

Verse 2 - exactly the same as verse 1 and i cba to copy it all again:P

Play the chorus again

Bridge

Guitar 1 x2
eb|-------------------------------------------------------------------------|
Bb|-------------------------------------------------------------------------|
Gb|--10-7--------12-7--7/10-10--10---10-7-----------------------------------|
Db|--10-7--------12-7--7/10-10--10---10-7--------8\3------------------------|
Ab|--8--5-0--0-0-10-5--5/8--8---8--- 8--5--------8\3------------------------|
Db|-------0--0-0--------------------------0--0-0-8\3------------------------|
          .  . .               ^ Slight   .  . .
                                 pause

Guitar 2 x2
eb|-------------------------------------------------------------------------|
Bb|-------------------------------------------------------------------------|
Gb|--10-7--------12-7--7/10-10--10---10-7-----------------------------------|
Db|--x--x--------x--x--x-x--x---x----x--x--------8\3------------------------|
Ab|--8--5-0--0-0-10-5--5/8--8---8----8--5--------8\3------------------------|
Db|-------0--0-0--------------------------0--0-0-8\3------------------------|
          .  . .               ^ Slight   .  . .
                                 pause

Guitar 1 x2
eb|---------------------------------------------------------------------------|
Bb|---------------------------------------------------------------------------|
Gb|--7------------------------------------------------------------------------|
Db|--7--------8\3-------------------------------------------------------------|
Ab|--5--------8\3-------------------------------------------------------------|
Db|-----------8\3-------------------------------------------------------------|
     ^ Play this note a few times ocassionally sliding up to it (listen for
       timing)

Guitar 2 x2
eb|---------------------------------------------------------------------------|
Bb|---------------------------------------------------------------------------|
Gb|--7------------------------------------------------------------------------|
Db|--x--------8\3-------------------------------------------------------------|
Ab|--5--------8\3-------------------------------------------------------------|
Db|-----------8\3-------------------------------------------------------------|
     ^ Play this note a few times ocassionally sliding up to it (listen for
       timing)

Interlude

Guitar 1 Acoustic (3:15)
eb|----5~-------------5~----------------------------------------------------------|
Bb|----6~-------------6~----------------------------------------------------------|
Gb|----7~-------------7~----------------------------------------------------------|
Db|----7~-------------7~----------------------------------------------------------|
Ab|----5~-------------5~----------------------------------------------------------|
Db|-------------------------------------------------------------------------------|


Guitar 1 x2 (3:23)
eb|---------------------------------------------------------------------------|
Bb|---------------------------------------------------------------------------|
Gb|--7------------------------------------------------------------------------|
Db|--7--------8\3-------------------------------------------------------------|
Ab|--5--------8\3-------------------------------------------------------------|
Db|-----------8\3-------------------------------------------------------------|


Guitar 2 x2
eb|---------------------------------------------------------------------------|
Bb|---------------------------------------------------------------------------|
Gb|--7------------------------------------------------------------------------|
Db|--x--------8\3-------------------------------------------------------------|
Ab|--5--------8\3-------------------------------------------------------------|
Db|-----------8\3-------------------------------------------------------------|
              ^ On second time of playing dont play the 8\3, just stop then
                straight into the last chorus, (both guitars).

Play last chorus which is the same as the others then end on:

Guitar 1 x2
eb|---------------------------------------------------------------------------|
Bb|---------------------------------------------------------------------------|
Gb|--7-7-7\-------------------------------------------------------------------|
Db|--7-7-7\-------------------------------------------------------------------|
Ab|--5-5-5\-------------------------------------------------------------------|
Db|---------------------------------------------------------------------------|


Guitar 2 x2
eb|---------------------------------------------------------------------------|
Bb|---------------------------------------------------------------------------|
Gb|--7-7-7\-------------------------------------------------------------------|
Db|--x-x-x--------------------------------------------------------------------|
Ab|--5-5-5\-------------------------------------------------------------------|
Db|---------------------------------------------------------------------------|

  /  slide up
  \  slide down
  h  hammer-on
  p  pull-off
  ~  Let ring/Vibrato
  +  harmonic
  x  Mute note

Plz rate the tab:).
Any probs, corrections or comments e-mail me at drewey101@hotmail.com
comments
We did not receive enough feedback on this tab! Please rate:
print report bad tab
1 2 3 4 5
1 comment total.
0 reply
GrAfF_iT 199 wrote on October 24 2006, 04:47 pm

pretty sound tab.. props, its off in a few parts though

I want to post or [tab]
guest
You may want to rate the tab now too:
select rating
Please do not post tabs as comments. Select "correction" instead!