Oops, an error
Loading. Please wait.

This Could Be Anywhere Tab

version 6
version 6

Interactive

3,376 views 1 this week
3 commentsread comments
1 2 3 4 5
please rate
add to favorites
launch autoscroll
font size
0
reset
how to read this tab
guitar tuner
Tab Pro tools
  • play this tab
  • loop segment
  • change instrument
  • show fretboard
  • metronome
×
Best way to learn
"This Could Be Anywhere"
Autoscroll
slow
fast
+/-
esc
set tempo
stop
Contributor
first tab ever...so yep comment :D
its prob not the correct tab..but hey,at least it sounds like it.
and sorry for missing parts..I dont feel like thinking at the moment now since its 3 in 
morning and Im tired..so Ill go sleep now....zZzZzZ....

-------------------------------------------------------------------------------
        This Could Be Anywhere In The World - Alexisonfire
-------------------------------------------------------------------------------
Tabbed by: Natalie A.
Tuning:standard

                            Intro

e|------------|--------------------------------------------------------------|
G|------------|--------------------------------------------------------------|
D|-----11--11-|x2-----11--11--11---------------------------------------------|
A|------9---9-|--------9---9---9---------------------------------------------|
E|------9---9-|--------9---9---9---------------------------------------------|

                            Verse

e|---------------------------------------------------------------------------|
B|---9------------9-------------9------------7-9-10-9------------------------|
G|-----6-8-9-8-6----6-8-9-11-8----6-8-9-8-6----------------------------------|
D|------------------------------------------------------11--11-------11--11--|
A|-------------------------------------------------------9---9--------9---9--|
E|-------------------------------------------------------9---9--------9---9--|


e|-----5--4-2------------5--4-2----------------------------------------------|
B|------------4-4/5-------------4-4/5-5/12-----------------------------------|
G|--6-----------------6------------------------------------------------------|
D|-------------------------------------------------------11--11------11--11--|
A|--------------------------------------------------------9---9-------9---9--|
E|--------------------------------------------------------9---9-------9---9--|


e|---------------------------------------------------------------------------|
B|---9------------9-------------9------------7-9-10-9------------------------|
G|-----6-8-9-8-6----6-8-9-11-8----6-8-9-8-6----------------------------------|
D|---------------------------------------------------------------------------|
A|---------------------------------------------------------------------------|
E|---------------------------------------------------------------------------|

                            Chorus
(not exact strumming)
e|---------------------------------------------------------------------------|
B|---------------------------------------------------------------------------|
G|---------------------------------------------------------------------------|
D|----11-11-11-11---7-7-7-7---4-4-4-4---7-7-7-7------------------------------|
A|-----9--9--9--9---5-5-5-5---4-4-4-4---5-5-5-5------------------------------|
E|-----9--9--9--9---5-5-5-5---2-2-2-2---5-5-5-5------------------------------|

e|---------------------------------------------------------------------------|
B|---------------------------------------------------------------------------|
G|---------------------------------------------------------------------------|
D|----11-11-11-11---7-7-7-7---4-4-4-4---7-7-7-7---9--9--9--------------------|
A|-----9--9--9--9---5-5-5-5---4-4-4-4---5-5-5-5---9--9--9--------------------|
E|-----9--9--9--9---5-5-5-5---2-2-2-2---5-5-5-5---7--7--7--------------------|

                      Verse

e|---------------------------------------------------------------------------|
B|------------------9--------------9---------------9------------7-9-10\9-----|
G|--------------------6-8-9-8-6------6-8-9-11-9-8----6-8-9-8-6---------------|
D|---11--11--11--------------------------------------------------------------|
A|----9---9---9--------------------------------------------------------------|
E|----9---9---9--------------------------------------------------------------|

e|------------------------5-4-2------------5-4-2-----------------------------|
B|------------------------------4-4/5-------------4-4/5-(5/12)---------------|
G|----------------------6----------------6-----------------------------------|
D|---11--11----11--11--------------------------------------11--11----11--11--|
A|----9---9-----9---9---------------------------------------9---9-----9---9--|
E|----9---9-----9---9---------------------------------------9---9-----9---9--|

e|---------------------------------------------------------------------------|
B|----9--------------9---------------9------------7-9-10\9-------------------|
G|-------6-8-9-8-6------6-8-9-11-9-8----6-8-9-8-6----------------------------|
D|---------------------------------------------------------------------------|
A|---------------------------------------------------------------------------|
E|---------------------------------------------------------------------------|

              Chorus
(not exact strumming)
e|---------------------------------------------------------------------------|
B|---------------------------------------------------------------------------|
G|---------------------------------------------------------------------------|
D|----11-11-11-11---7-7-7-7---4-4-4-4---7-7-7-7------------------------------|
A|-----9--9--9--9---5-5-5-5---4-4-4-4---5-5-5-5------------------------------|
E|-----9--9--9--9---5-5-5-5---2-2-2-2---5-5-5-5------------------------------|

e|---------------------------------------------------------------------------|
B|---------------------------------------------------------------------------|
G|---------------------------------------------------------------------------|
D|----11-11-11-11---7-7-7-7---4-4-4-4---7-7-7-7---9--9--9--------------------|
A|-----9--9--9--9---5-5-5-5---4-4-4-4---5-5-5-5---9--9--9--------------------|
E|-----9--9--9--9---5-5-5-5---2-2-2-2---5-5-5-5---7--7--7--------------------|

                        Bridge
(Im gonna really guess on this part)(second part is confusing)  (acoustic)
e|-------------------------------------------------|--------------------------|
B|-------------------------------------------------|----7----6----------------|
G|---9/6---11/6----8/9----9/6----------------------|----8----8----------------|
D|---x/x----x/x----x/x----x/x-------6/7--4-4--0-0--|x2--8----8----------------|
A|---7/4----9/4----6/7----7/4-------6/7--4-4--0-0--|----6----6----------------|
E|----------------------------------4/5--2-2--0-0--|--------------------------|

              Chorus
(not exact strumming)
e|---------------------------------------------------------------------------|
B|---------------------------------------------------------------------------|
G|---------------------------------------------------------------------------|
D|----11-11-11-11---7-7-7-7---4-4-4-4---7-7-7-7------------------------------|
A|-----9--9--9--9---5-5-5-5---4-4-4-4---5-5-5-5------------------------------|
E|-----9--9--9--9---5-5-5-5---2-2-2-2---5-5-5-5------------------------------|

e|---------------------------------------------------------------------------|
B|---------------------------------------------------------------------------|
G|---------------------------------------------------------------------------|
D|----11-11-11-11---7-7-7-7---4-4-4-4---7-7-7-7---9--9--9--------------------|
A|-----9--9--9--9---5-5-5-5---4-4-4-4---5-5-5-5---9--9--9--------------------|
E|-----9--9--9--9---5-5-5-5---2-2-2-2---5-5-5-5---7--7--7--------------------|


e|---------------------------------------------------------------------------|
B|---------------------------------------------------------------------------|
G|---------------------------------------------------------------------------|
D|-----11---11---11----------------------------------------------------------|
A|------9----9----9----------------------------------------------------------|
E|------9----9----9----------------------------------------------------------|

| /  slide up
| \  slide down
| h  hammer-on
| p  pull-off
| ~  vibrato
| +  harmonic
| x  Mute note
===============================================================================
comments
We did not receive enough feedback on this tab! Please rate:
print report bad tab
1 2 3 4 5
3 comments total.
0 reply
BreAkdOwn396 wrote on June 2 2009, 12:02 am

first tab to get the second part of the verse right :) but its

not

9

0 reply
BreAkdOwn396 wrote on June 2 2009, 12:04 am



9

not


9

0 reply
BreAkdOwn396 wrote on June 2 2009, 12:04 am

sorry :( im just gonna give up and go cry

I want to post or [tab]
guest
You may want to rate the tab now too:
select rating
Please do not post tabs as comments. Select "correction" instead!