Oops, an error
Loading. Please wait.

This Could Have Been Anywhere Tab

version 1
version 1

Whole song

Interactive

741 views 1 this week
2 commentsread comments
1 2 3 4 5
2 more votes to show rating
add to favorites
launch autoscroll
font size
0
reset
how to read this tab
guitar tuner
Autoscroll
slow
fast
+/-
esc
set tempo
stop
Help us to improve Ultimate-Guitar.com Take our survey!
×
Difficulty
novice
Intro

|--------------------------------------------------|
|--------------------------------------------------|
|--------------------------------------------------|
|-----6-6----------6-6-----------6-6-6-------------|
|-----6-6----------6-6-----------6-6-6-------------|
|-----4-4----------4-4-----------4-4-4-------------|

"This town has it's claws..."

|--------------------------------------------------|
|--------------------------------------------------|
|--------6-4--------------6-8-6-4-----------6-4----|
|--6-8-9-----6------6-8-9-------------6-8-9-----6--|
|--------------------------------------------------|
|--------------------------------------------------|

"The streets are in distress..."

|--------------------------------------------------|
|--------------------------------------------------|
|--------------------------------------------------|
|-------6-6----------6-6---------------------------|
|-------6-6----------6-6---------------------------|
|-------4-4----------4-4---------------------------|

"The grass is growing..."

|--------------------------------------------------|
|--------------------------------------------------|
|------9-8-6-4-4-6----------9-8-6-----6-9----------|
|--6-8------------------6-8-------6-9--------------|
|--------------------------------------------------|
|--------------------------------------------------|

"The line up seems endless..."

|--------------------------------------------------|
|--------------------------------------------------|
|--------------------------------------------------|
|-------6-6----------6-6---------------------------|
|-------6-6----------6-6---------------------------|
|-------4-4----------4-4---------------------------|

"We are the dead ones..."

|--------------------------------------------------|
|--------------------------------------------------|
|--------6-4--------------6-8-6-4-----------6-4----|
|--6-8-9-----6------6-8-9-------------6-8-9-----6--|
|--------------------------------------------------|
|--------------------------------------------------|

Chorus

|--------------------------------------------------|
|--------------------------------------------------|
|--6------9----------------------------------------|
|--6------9------7------9------11------------------|     x2
|--4------7------7------9------11------------------|
|----------------5------7------9-------------------|


|--------------------------------------------------|
|--------------------------------------------------|
|--------------------------------------------------|
|-------6-6-6--------------------------------------|
|-------6-6-6--------------------------------------|
|-------4-4-4--------------------------------------|


"Every step i take..."

|--------------------------------------------------|
|--------------------------------------------------|
|--------6-4--------------6-8-6-4-----------6-4----|
|--6-8-9-----6------6-8-9-------------6-8-9-----6--|
|--------------------------------------------------|
|--------------------------------------------------|

"The cracks in the pavement..."

|--------------------------------------------------|
|--------------------------------------------------|
|--------------------------------------------------|
|-------6-6----------6-6---------------------------|
|-------6-6----------6-6---------------------------|
|-------4-4----------4-4---------------------------|

"The sky's a brick wall..."

|--------------------------------------------------|
|--------------------------------------------------|
|------9-8-6-4-4-6----------9-8-6-----6-9----------|
|--6-8------------------6-8-------6-9--------------|
|--------------------------------------------------|
|--------------------------------------------------|

"I stare in amazement..."

|--------------------------------------------------|
|--------------------------------------------------|
|--------------------------------------------------|
|-------6-6----------6-6---------------------------|
|-------6-6----------6-6---------------------------|
|-------4-4----------4-4---------------------------|

"Every breath i take..."

|--------------------------------------------------|
|--------------------------------------------------|
|--------6-4--------------6-8-6-4-----------6-4----|
|--6-8-9-----6------6-8-9-------------6-8-9-----6--|
|--------------------------------------------------|
|--------------------------------------------------|

Chorus

|--------------------------------------------------|
|--------------------------------------------------|
|--6------9----------------------------------------|
|--6------9------7------9------11------------------|     x2
|--4------7------7------9------11------------------|
|----------------5------7------9-------------------|

"Our steps seal fate..."

|--------------------------------------------------|
|--------------------------------------------------|
|--------------------------------------------------|
|-6-6--x-x--6-6--x--6--x--6-6--x--6--x--2-2--x--5-5|
|-6-6--x-x--6-6--x--6--x--6-6--x--6--x--2-2--x--5-5|
|-4-4--x-x--4-4--x--4--x--4-4--x--4--x--0-0--x--3-3|

"This is our celebration..."

|--------------------------------------------------|
|--------------------------------------------------|
|--------------------------------------------------|
|-------6-6-6-6-6-6-6-6-6-6-6-6-2-2-2-5-5-5--------|
|-------6-6-6-6-6-4-6-6-6-6-6-6-2-2-2-5-5-5--------|
|-------4-4-4-4-4-4-4-4-4-4-4-4-0-0-0-3-3-3--------|

"Oh walk with us oh..."

|--------------------------------------------------|
|--------------------------------------------------|
|--------------------------------------------------|
|-------6-6-6-6-6-6-6-6-6-6-6-6-2-2-2-5-5-5--------|
|-------6-6-6-6-6-4-6-6-6-6-6-6-2-2-2-5-5-5--------|
|-------4-4-4-4-4-4-4-4-4-4-4-4-0-0-0-3-3-3--------|


Chorus

|--------------------------------------------------|
|--------------------------------------------------|
|--6------9----------------------------------------|
|--6------9------7------9------11------6-6-6-------|
|--4------7------7------9------11------6-6-6-------|
|----------------5------7------9-------4-4-4-------|
Suggest correction
Give kudos to tab author, rate the tab!
1 2 3 4 5
comments
print report bad tab
2 comments total.
0 reply
francisonfire 82 Jul 16, 2006 06:31 PM

it's called This could be anywhere in the world.

0 reply
chouffot 10 Aug 04, 2006 12:44 AM

This tab does not sound like the song. I don't know if there is a different tuning that you have not indicated that would make this sound right. I believe the intro should be moved up one string.

guest
You may want to rate the tab now too:
select rating
Wanna post a correction for this tab? Suggest correction