Oops, an error
Loading. Please wait.

Tonight I Am Going To Wash The Hippy Bass Tab

361 views 3 this week
no commentswrite comment
1 2 3 4 5
please rate
add to favorites
launch autoscroll
font size
0
reset
guitar tuner
Autoscroll
slow
fast
+/-
esc
set tempo
stop
Help us to improve Ultimate-Guitar.com Take our survey!
×
Contributor
100%, flat

Verse 1 (00:00 – 00:23) 

N/A

Verse 2 (00:23 – 00:55)

Gb|----------|
Db|----------|
Ab|-555555---| x8 
Eb|----------|

Chorus (00:55 – 01:27)

Gb|---------------|
Db|---------------|
Ab|-5~-3~---------| x4 
Eb|-------5~-6~---|

Gb|---------------|
Db|---------------|
Ab|-5~-3~/8~------| x4 
Eb|----------6~---|

Verse 3 (01:27 – 01:42)

Gb|----------|
Db|----------|
Ab|-555555---| x2 
Eb|----------|

Gb|----------------------|
Db|----------------------|
Ab|-5~-5~-3~~------------| x2 
Eb|-----------6~-6~-6~---|

Chorus 2 (01:42 – 02:14)

Gb|---------------|
Db|---------------|
Ab|-5~-3~---------| x4 
Eb|-------5~-6~---|

Gb|---------------|
Db|---------------|
Ab|-5~-3~/8~------| x4 
Eb|----------6~---|

Bridge (02:14 – 03:01)

Gb|-----------------|
Db|-----------------|
Ab|-555555-333------| x8 
Eb|------------66---|

Gb|-------------------------|
Db|-------------------------|
Ab|-555555---------333------| x4 
Eb|--------77////------66---|

Chorus 3 (03:01 – 03:17)

Gb|-----------------|
Db|-----------------|
Ab|-555555-333------| x4 
Eb|------------66---|

Verse 4 (03:17 – 04:39)

Gb|-------------------------------|
Db|-------------------------------|
Ab|-5~~-5~~-5~~~~-3~~-3~~---------| x8 
Eb|-----------------------6~~~~---|

Gb|-----------------------|
Db|-----------------------|
Ab|-5555-5555-3333--------| x2
Eb|----------------6666---|

Gb|---------------------------------------------------|
Db|---------------------------------------------------|
Ab|-5555-5555------------5555-5555-3333------5~~~~~---|
Eb|-------------6~-6~-6~----------------6~~~----------|

Gb|-------------|
Db|-------------|
Ab|-5~~~~~~~~---| x4 
Eb|-------------|

Bridge 2 (04:39 – 05:47)

Gb|---------------------------------------------------|
Db|---------------------------------------------------|
Ab|-5555-5555-5555-3~-3~-3~-5555-5555-5555------------| x5 
Eb|----------------------------------------6~-6~-6~---|

Gb|---------------------------------------------------|
Db|---------------------------------------------------|
Ab|-5555-5555-5555-3~-3~-3~-5555-5555-5555-3~~~~~~~---|
Eb|---------------------------------------------------|

Gb|---------------------------|
Db|---------------------------|
Ab|-5555-5555-5555-3~-3~-3~---| x3 
Eb|---------------------------|

Gb|-----------------------------|
Db|-----------------------------|
Ab|-5555-5555-5555-3~~-5~~~~~---|
Eb|-----------------------------|
comments
We did not receive enough feedback on this tab! Please rate:
print report bad tab
1 2 3 4 5
I want to post or [tab]
guest
You may want to rate the tab now too:
select rating
Please do not post tabs as comments. Select "correction" instead!