Oops, an error
Loading. Please wait.

Water Wings Bass Tab

version 2
version 2

Whole song

Interactive

2,731 views 3 this week
2 commentsread comments
1 2 3 4 5
x 5
add to favorites
launch autoscroll
font size
0
reset
guitar tuner
Autoscroll
slow
fast
+/-
esc
set tempo
stop
Help us to improve Ultimate-Guitar.com Take our survey!
×
drop d tuning

ya, the other bass tab for this clearly sucks, this is not a hard bass line, its really 
actually, enjoy if you will

G------------------------------------------------------------ 10-----|s
D--------------------------------------------------------------------|   ^
A-555-77777777-99999999-555555555555-------77777777-1010101010101010-|
D------------------------------------xxx-----------------------------|

continued:
G------------------------------------------------------------|
D------------------------------------------------------------|
A-555555555-----777777777-3333333333-5555555555555-----------|
D-----------xxx------------------------------------xxx-------|

then                                             the heavier part
G----------------------------------------------  ---------------|x2
D----------------------------------------------  ---------------|
A-777777777-101010101010101010-5---5---5-5-5-5-  --------5-55---|
D-------------------------------xxx-xxx-x-x-x--  -00-12/5-x-----|

the crazyish part
G------------------------------------------------------------|x2
D------------------------------------------------------------|
A--2-5p0-4p0-5p0-7p0-5p0-4h5p4-------------------------------|
D------------------------------------------------------------|

keep doing the heavier part twice then the crazyish part

"the images hurt my eyes"
G------------------------------------------------------------|
D------------------------------------------------------------|
A-777777777-10101010101010-55555555555555--------------------|
D------------------------------------------------------------|


G-------------------------------------------------------------| X however many
D-------------------------------------------------------------|
A-777777777-3333333333-555555555555---------------------------|
D-------------------------------------------------------------|


then go back to the intro

then this
G------------------------------------------------------------|
D------------------------------------------------------------|
A------------------------------------------------------------|
D-00-011-00-011-00-011-00-011-00-----------------------------|

G-------------------------------------------------------------|do this for a long time
D-------------------------------------------------------------|
A-7777777777-3333333333-555555555555--------------------------|
D-------------------------------------------------------------|

end with this
G------------------------------------------------------------|
D------------------------------------------------------------|
A--2-5p0-4p0-5p0-7p0-5p0-4h5p4--2----------------------------|
D------------------------------------------------------------|

tabbed by Ryan Smith
contact me at littlesmitty10_02@hotmail.com  if u need help with something
or just need something to do, but mostly just use it for corrections and such
Suggest correction
comments
print report bad tab
2 comments total.
0 reply
<the_last> 120 Feb 03, 2006 02:45 PM

bravo ruan, i dont play bass, but it looks good to me

+1 reply
bassoreo 10 Jul 06, 2009 07:53 AM

wrong tuning for the frets ur sayin

guest
You may want to rate the tab now too:
select rating
Wanna post a correction for this tab? Suggest correction