Oops, an error
Loading. Please wait.

We Are The End Tab

version 1
version 1

Whole song

7,424 views 6 this week
no commentswrite comment
1 2 3 4 5
excellent!
x 3
add to favorites
launch autoscroll
font size
0
reset
how to read this tab
guitar tuner
Autoscroll
slow
fast
+/-
esc
set tempo
stop
Help us to improve Ultimate-Guitar.com Take our survey!
×
Contributor
Difficulty
Tuning
deluge_nl 178
novice
C# G# C# F# A# D#
Alexisonfire – We are the End
Album - Crisis
Tabbed by - Thijs v/d Pol

Great song, but there were no tabs available for it yet so I figured I might as well 
a shot at it. Dont have all the parts for both guitars but tabbed out what I could get.


(0:25-0:58) When distorted guitar comes in, listen to song for strumming patern.
Verse1 (guitar 1) 3x
Eb|----------------------------------------------------------------------------|
Bb|----------------------------------------------------------------------------|
Gb|----------------------------------------------------------------------------|
Db|--10---7-7---7-7---7-7---7-7---7-7---7-7---7-7-7---(x2)------3-3-3---5-5-5--|
Ab|--10---7-7---7-7---7-7---7-7---7-7---7-7---7-7-7-------------3-3-3---5-5-5--|
Db|--10---7-7---7-7---7-7---7-7---7-7---7-7---7-7-7-------------3-3-3---5-5-5--|


Don’t know much about guitar2, but it does this little thingy when guitar1 does 333-555
Verse
Eb|-------------------------------------------------------------------------|
Bb|-------------------------------------------------------------------------|
Gb|--------5---4~--------------4---5~---------------------------------------|
Db|---2--------------------2------------------------------------------------|
Ab|-------------------------------------------------------------------------|
Db|-------------------------------------------------------------------------|


(0:59-1:25)
Chorus 4x
Eb|-------------------------------------------------------------------------|
Bb|-------------------------------------------------------------------------|
Gb|--------------------------------9--7—5--12--14--5------------------------|
Db|--10---7-7---7-7 --7-7---7-7-------------------------------3-3-3---5-5-5-|
Ab|--10---7-7---7-7---7-7---7-7----7--5—3--10--12--3----------3-3-3---5-5-5-|
Db|--10---7-7---7-7---7-7---7-7-------------------------------3-3-3---5-5-5-|


(1:26-1:53)
Verse2  2x
Eb|--------------------------------------------------------------------------------|
Bb|--------------------------------------------------------------------------------|
Gb|--------------------------------------------------------------------------------|
Db|---7-7~--7-7~--7-7---7-7~--7-7~---3-3----7-7~--7-7~--7-7---7-7~--7-7~-----------|
Ab|---7-7~--7-7~--7-7---7-7~--7-7~---3-3----7-7~--7-7~--7-7---7-7~--7-7~-----------|
Db|---7-7~--7-7~--7-7---7-7~--7-7~---3-3----7-7~--7-7~--7-7---7-7~--7-7~----3—5--2-|


(1:54-2:06)
Bridge (guitar1) 2x
Eb|-------------------------------------------------------------------------|
Bb|-------------------------------------------------------------------------|
Gb|-------------------------------------------------------------------------|
Db|---7-7~--10~---3-3---7-7~--10-10~----------------------------------------|
Ab|---7-7~--10~---3-3---7-7~--10-10~----------------------------------------|
Db|---7-7~--10~---3-3---7-7~--10-10~----------------------------------------|


(1:54-2:07)
Bridge (guitar2) 2x
Eb|----------------------3-3~--0--0-1-0------------------------3~~----------|
Bb|---5-6-5-3-1-3-1------------------------5-6-5-3-1-3-1--------------------|
Gb|-------------------------------------------------------------------------|
Db|-------------------------------------------------------------------------|
Ab|-------------------------------------------------------------------------|
Db|-------------------------------------------------------------------------|


(2:08-2:35)
Chorus 4x
Eb|-------------------------------------------------------------------------|
Bb|-------------------------------------------------------------------------|
Gb|--------------------------------9--7—5--12--14--5------------------------|
Db|--10---7-7---7-7 --7-7---7-7-------------------------------3-3-3---5-5-5-|
Ab|--10---7-7---7-7---7-7---7-7----7--5—3--10--12--3----------3-3-3---5-5-5-|
Db|--10---7-7---7-7---7-7---7-7-------------------------------3-3-3---5-5-5-|


Slow part
(2:55-3:14) 2x
Eb|-------------------------------------------------------------------------|
Bb|-------------------------------------------------------------------------|
Gb|-------------------------------------------------------------------------|
Db|-7--7-7—7-7-----10~---3--------------------------------------------------|
Ab|-7--7-7—7-7-----10~---3--------------------------------------------------|
Db|-7--7-7—7-7-----10~---3--------------------------------------------------|


Last Chorus 4x
Chorus 4x
Eb|-------------------------------------------------------------------------|
Bb|-------------------------------------------------------------------------|
Gb|--------------------------------9--7—5--12--14--5------------------------|
Db|--10---7-7---7-7 --7-7---7-7-------------------------------3-3-3---5-5-5-|
Ab|--10---7-7---7-7---7-7---7-7----7--5—3--10--12--3----------3-3-3---5-5-5-|
Db|--10---7-7---7-7---7-7---7-7-------------------------------3-3-3---5-5-5-|


End on
Eb|-------------------------------------------------------------------------|
Bb|-------------------------------------------------------------------------|
Gb|-------------------------------------------------------------------------|
Db|---7—7//slide down-------------------------------------------------------|
Ab|---7—7//-----------------------------------------------------------------|
Db|---7—7//-----------------------------------------------------------------|


That's it, enjoy!
Suggest correction new What's this?
You can suggest a correction to this tab. Community and Mods will review your correction and vote to approve or reject it.
comments
We did not receive enough feedback on this tab! Please rate:
print report bad tab
1 2 3 4 5
guest
You may want to rate the tab now too:
select rating
Please do not post tabs as comments. Select "correction" instead!