Oops, an error
Loading. Please wait.

We Are The End Tab

version 2
version 2

Whole song

527 views 3 this week
no commentswrite comment
1 2 3 4 5
please rate
add to favorites
launch autoscroll
font size
0
reset
how to read this tab
guitar tuner
Autoscroll
slow
fast
+/-
esc
set tempo
stop
Help us to improve Ultimate-Guitar.com Take our survey!
×
Author
Tuning
C# G# C# F# A# D#
We are the End
Alexisonfire

tabbed by: T Kallas

tuning: Drop C#


intro  This may not be correct, but it sounds close
e|--0--0------0------0--|
B|--0--0------0------0--|
G|--4--2----------------|
D|--2--2------2------2--|
A|--0--0------3------5--|
E|----------------------|

verse 
e|-----------------------------|------------|
B|-----------------------------|-----1-0----|
G|-----------------------------|------------|
D|--10--7--7-------10------0---|---2--------|
A|--10--7--7-------10------0---|------------|
E|--10--7--7-------10------0---|------------|

chorus  gtr 1
e|---------------------------------------------------|
B|---------------------------------------------------|
G|----------------9-7-7--12-14-----------------------|
D|--10--7--7------9-7-7---------0-3-3-3---5-0-0-0----|
A|--10--7--7------7-5-5--10-12--0-3-3-3---5-0-0-0----|
E|--10--7--7--------------------0-3-3-3---5-0-0-0----|

chorus gtr 2    Hard to hear, but close to this:
e|--12-----------------12-------15-17-------|
B|-----13-12-15-----------13-12-------12----|
G|--------------14-12-----------------------|
D|------------------------------------------|
A|------------------------------------------|
E|------------------------------------------|


bridge
e|---------------------------------------|
B|---------------------------------------|
G|---------------------------------------|
D|--7---------5----7---------------------|
A|--7---------5----7------------3--5--2--|
E|--7---------5----7------------3--5--2--|

solo during bridge
e|-------------------------------------------|
B|--------------------8---8------------------|
G|--9-10-9-7------------9---9-10-9-7---------|
D|-----------10-9-7------------------10-7----|
A|-------------------------------------------|
E|-------------------------------------------|

last verse gtr 2 (played with intro part)
e|-------------------------|
B|-------------------------|
G|-------------------------|
D|--7-7-7------10-------0--|
A|--7-7-7------10-------0--|
E|--7-7-7------10-------0--|
Suggest correction
Give kudos to tab author, rate the tab!
1 2 3 4 5
comments
print report bad tab
guest
You may want to rate the tab now too:
select rating
Please do not post tabs as comments. Select "correction" instead!