Oops, an error
Loading. Please wait.

We Are The Sound Bass Tab

version 1
version 1

Whole song

1,024 views 3 this week
2 commentsread comments
1 2 3 4 5
2 more votes to show rating
add to favorites
launch autoscroll
font size
0
reset
guitar tuner
Autoscroll
slow
fast
+/-
esc
set tempo
stop
Help us to improve Ultimate-Guitar.com Take our survey!
×
Author
100% correct, flat

Intro (00:00 – 00:14) 

Gb|-------------------------|
Db|-------------------------|
Ab|-------------------------| x2 
Eb|-77-77-777-7--77-77-77---|

Verse 1 (00:14 – 00:45)

Gb|-----------------|
Db|-----------------|
Ab|-----------------| x2 
Eb|-7---7---5---6---|

Gb|------------------------------------------------| 
Db|------------------------------------------------|
Ab|------------------------------------------------|
Eb|-7777777-77777777-101010101010-121212-7777777---|

Gb|-----------------|
Db|-----------------|
Ab|-----------------|
Eb|-7---7---5---6---|

Verse 2 (00:45 – 00:59)

Gb|-----------------|
Db|-----------------|
Ab|-----------------| x2 
Eb|-7---7---5---6---|

Pre-Chorus (00:59 – 01:14)

Gb|------------------------------------| 
Db|------------------------------------|
Ab|------------------------------------|
Eb|-7777777-55555555-3333333-0000000---|

Gb|-----------------|
Db|-----------------|
Ab|-----------------|
Eb|-7---7---5---6---|

Chorus (01:14 – 01:42)

Gb|-------------------|
Db|-------------------| 
Ab|-------------------| x7
Eb|-55-5--5-7-7-7-3---|

Gb|-----------------|
Db|-----------------| 
Ab|-----------------| 
Eb|-55-5--5-7-7-7---| 

Verse 3 (01:42 – 01:57)

Gb|-----------------|
Db|-----------------|
Ab|-----------------| x2 
Eb|-7---7---5---6---|

Pre-Chorus (01:57 – 02:12)

Gb|------------------------------------| 
Db|------------------------------------|
Ab|------------------------------------|
Eb|-7777777-55555555-3333333-0000000---|

Gb|-----------------|
Db|-----------------|
Ab|-----------------|
Eb|-7---7---5---6---|

Bridge (02:12 – 02:41)

Gb|-----------------------------|
Db|-----------------------------| 
Ab|-----------------------------| x4
Eb|-55-5--5-7-7-7-55-5--5-7-7---|

Interlude (02:41 – 02:55)

Gb|-------------------------|
Db|-------------------------|
Ab|-------------------------| 
Eb|-77-77-777-7--77-77-77---|

Chorus 2 (02:55 – 03:40)

Gb|-------------------|
Db|-------------------| 
Ab|-------------------| x9
Eb|-55-5--5-7-7-7-3---|

Gb|-------------------|
Db|-------------------| 
Ab|-------------------| 
Eb|-55-5--5-7-7---3---|
Suggest correction
Give kudos to tab author, rate the tab!
1 2 3 4 5
comments
print report bad tab
2 comments total.
0 reply
weado500 73 Nov 20, 2006 11:15 PM

this tab has errors, i just submitted the proper way to play the song

0 reply
JM1233 52 Oct 29, 2009 12:40 AM

this tab is pretty far off

guest
You may want to rate the tab now too:
select rating
Wanna post a correction for this tab? Suggest correction