Oops, an error
Loading. Please wait.

We Are The Sound Bass Tab

version 2
version 2

Whole song

1,424 views 1 this week
1 commentread comment
1 2 3 4 5
please rate
add to favorites
launch autoscroll
font size
0
reset
guitar tuner
Autoscroll
slow
fast
+/-
esc
set tempo
stop
Help us to improve Ultimate-Guitar.com Take our survey!
×
Author
Difficulty
novice
Rest until 0:13, then

Gb|--------------------------------------------------------------------------|
Db|--------------------------------------------------------------------------|
Ab|--2~----------------------------------------------------------------------|
Eb|--------------------------------------------------------------------------|

at 0:17, repeat 2 times

Gb|---------------------------------------------------------------------------|
Db|---------------------------------------------------------------------------|
Ab|-2222222222222222222222-------------------7--5--6h5------------------------|
Eb|----------------------------00000-------------------------333333333333-----|

at 0:31

Gb|---------------------------------------------------------------------------|
Db|---------------------------------------------------------------------------|
Ab|--22222222222222-----0000000000000-----------------------------------------|
Eb|---------------------------------------33333333333----00000000000----------|

Then back to

Gb|---------------------------------------------------------------------------|
Db|---------------------------------------------------------------------------|
Ab|-2222222222222222222222-------------------7--5--6h5------------------------|
Eb|----------------------------00000-------------------------333333333333-----|

At 0:49 seconds, repeat 2 times

Gb|---------------------------------------------------------------------------|
Db|---------------------------------------------------------------------------|
Ab|-2222222222222222222222----------------------------------------------------|
Eb|----------------------------00000-----333333333333-------------------------|

Then

Gb|---------------------------------------------------------------------------|
Db|---------------------------------------------------------------------------|
Ab|--22222222222222-----0000000000000-----------------------------------------|
Eb|---------------------------------------33333333333----00000000000----------|

And back to

Gb|---------------------------------------------------------------------------|
Db|---------------------------------------------------------------------------|
Ab|-2222222222222222222222----------------------------------------------------|
Eb|----------------------------00000-----333333333333-------------------------|

Chorus at 1:17, repeat until 1:45

Gb|---------------------------------------------------------------------------|
Db|---------------------------------------------------------------------------|
Ab|---00--222----------00--2222----------00--222-----------00--222------------|
Eb|-----------333333------------333333-----------333333------------333333-----|

then the second time the chorus comes around at 2:17

Gb|---------------------------------------------------------------------------|
Db|---------------------------------------------------------------------------|
Ab|---00--2222----------00--22----------00--2222-----------00--22-------------|
Eb|---------------------------------------------------------------------------|

To keep the tab short I am not going to do the rest of the times, just go back and play 
appropriate parts at the appropriate times in the song
Suggest correction
Give kudos to tab author, rate the tab!
1 2 3 4 5
comments
print report bad tab
1 comment total.
0 reply
weado500 73 wrote on November 24 2006, 02:06 pm

I made a typo. during the verses it should be 7 5 4h5

guest
You may want to rate the tab now too:
select rating
Wanna post a correction for this tab? Suggest correction