Oops, an error
Loading. Please wait.

Where No One Knows Bass Tab

version 1
version 1

Whole song

Interactive

560 views 1 this week
no commentswrite comment
1 2 3 4 5
please rate
add to favorites
launch autoscroll
font size
0
reset
guitar tuner
Tab Pro tools
  • play this tab
  • loop segment
  • change instrument
  • show fretboard
  • metronome
×
Best way to learn
"Where No One Knows"
Autoscroll
slow
fast
+/-
esc
set tempo
stop
Difficulty
intermediate
INTRO
|-11-11-11-11--14-14-14-14--11-11-11-11--14-14-14-14----|
|-9--9--9--9---16-16-16-16---9--9--9--9---16-16-16-16---|
|-------------------------------------------------------|
|-------------------------------------------------------|

|-11-11-11-11--11-11-11-11--14-14-14-14-----|
|-9--9--9--9----9--9--9--9---16-16-16-16----|
|-------------------------------------------|
|-------------------------------------------|

|-11-11-11-11--14-14-14-14--|
|-9--9--9--9---16-16-16-16--|
|---------------------------|
|---------------------------|

0:21
|----------------|
|----------------|
|-2~---2~--------|
|------------3~--|

pre verse...
|------------------------------------------|
|---------------------------------------5~-|
|-5-2--------5-2--------5-2-------5--2-----|
|------3-333------3-333-----3-333----------|

verse
|-----------------------------------------| |------|
|-----------------------------------------| |------|
|-2222-2222-----------2222-2222-----------| |-2222-|
|-----------3333-3333-----------3333-3333-| |------|

0:53
|------7-9-11-9-7-0----------9--7-9--4444------7-9-11-9-7-0--------|
|---7-9-------------5555-7------------------7-9--------------5555--|
|-9----------------------------------------9-----------------------|
|------------------------------------------------------------------|
continued
|---9--7-9--4444-------7-9-11-9-7-0--------9--7-9--4444-|
|-7-----------------7-9-------------5555-7--------------|
|-----------------9-------------------------------------|
|-------------------------------------------------------|


continued...
|------7-9-11-9-7-0--------9--7-9--4444--------7-9-11-9-7-0-----|
|---7-9-------------5555-7------------------7-9-------------5555|
|-9---------------------------------------9---------------------|
|---------------------------------------------------------------|

|---9--7-9--4444-------7-9-11-9-7-0---------------7-0--|
|-7-----------------7-9-------------5555--9-7-9-7------|
|-----------------9------------------------------------|
|------------------------------------------------------|
pre chorus
|-----------------------------------------------------------|
|-----------------------------------------------------------|
|-2222-2222-2222----------------2222-2222-2222--------------|
|----------------3333-3333-3333----------------333333333333-|

chorus
|----------------------------------------------|
|---------------------------------------5--5-0-|
|-5-2--------5-2--------5-2-------5--2---------|
|------3-333------3-333-----3-333--------------|

|----------------------------------------------|
|----------------------------------------------|
|-5-2-------5-2-------5-2-------5--2----2~-----|
|-----3-333-----3-333-----3-333------3~----3~--|

verse(1:57)
|-----------------------------------------|
|-----------------------------------------|
|-2222-2222-----------2222-2222-----------|
|-----------3333-3333-----------3333-3333-|

|-----------------------------------------------------------|
|-----------------------------------------------------------|
|-2222-2222-2222----------------2222-2222-2222--------------|
|----------------3333-3333-3333----------------3-3-3-3-3-3--|

interlude/bridge(2:16)
|------11~---------7~----------11~----------------11~----------|
|--9---9~---9------5~------9---9~---9---------9---9~----9------|
|-7-----------7~--------5/7----------7~---5/7------------7~----|
|--------------------------------------------------------------|

|-7~--------11~---------|
|-5~-----9--9~----------|
|-^--5/7-------*2-------|
|-:-------------^-3~----|
       :*really quiet*^

outro/breakdown...
|---------------------------------------------------- -4~~~~----|
|--------------------------------- 5~------------------5~~~~----|
|-5---2---5---2----5---2----5---2----5---2----5~~--2~~----------|
|------  3~------3~-------3~----------------3~------------------|

end on.
|-5-|
|-4-|
|---|
|---|
Let ring.
comments
We did not receive enough feedback on this tab! Please rate:
print report bad tab
1 2 3 4 5
I want to post or [tab]
guest
You may want to rate the tab now too:
select rating
Please do not post tabs as comments. Select "correction" instead!