Oops, an error
Loading. Please wait.

Young Cardinals Bass Tab

version 1
version 1

Whole song

Interactive

2,902 views 6 this week
no commentswrite comment
1 2 3 4 5
worth learning
x 4
add to favorites
launch autoscroll
font size
0
reset
guitar tuner
Autoscroll
slow
fast
+/-
esc
set tempo
stop
Help us to improve Ultimate-Guitar.com Take our survey!
×
Author
Difficulty
This is for a request of standard tuning bass tab for young cardinals 
(an awsome song)

Tuning: standard

 Intro     Verse
|--------|-----------------|
|--------|-----1-----------|
|--3--x8-|--3--------------|
|--------|--------4--6-----|
          
Chorus 
|-----------------|---------------|
|-----------------|-1-3-1-/5-3-1--|
|--3--x16---------|---------------|
|----------4--x12-|---------------|

Iterlude 
|-------------|
|-------------|
|-3~-2~-1~----|
|----------1~-|

|-------------------------|
|-------------------------|
|-3-x16-2-x16-1-x16-------|
|-------------------1-x16-|

Chorus (see above)

Outro
|-----------------|
|-----------------|
|--3-x16----------|
|----------4-x16--|
Suggest correction
comments
print report bad tab
guest
You may want to rate the tab now too:
select rating
Wanna post a correction for this tab? Suggest correction