Oops, an error
Loading. Please wait.

Young Cardinals Bass Tab

version 2
version 2

Whole song

Interactive

2,838 views 9 this week
no commentswrite comment
1 2 3 4 5
excellent!
x 3
add to favorites
launch autoscroll
font size
0
reset
guitar tuner
Tab Pro tools
  • play this tab
  • loop segment
  • change instrument
  • show fretboard
  • metronome
×
Best way to learn
"Young Cardinals"
Autoscroll
slow
fast
+/-
esc
set tempo
stop
Contributor
Tuning
D# G# C# F# A# D#
Artist - Alexisonfire
Album - Old Crows/Young Cardinals
Track - Young Cardinals
Tuning - Half Step Down (D#G#C#F#/EbAbDbGb)

NB - (n) notes inside parentheses are optional
   - where two 'o' are used, repeat between (if repeat is more than x2, it will be 
ABOVE bar)

Intro
F#|--------------------------------|--------------------------------|
C#|--------------------------------|--------------------------------|
G#|-4-------4-------4-------4------|-4-------4-------4-------4------|
D#|--------------------------------|--------------------------------|

Verse 1                                                          x4
F#|--------------------------------|--------------------------------|
C#|o-------------------------------|-------------------------------o|
G#|o4------------------------------|----------------------2---2----o|
D#|----------------------0---0-----|-5------------------------------|

Chorus
F#|--------------------------------|--------------------------------|
C#|o-------------------------------|--------------------------------|
G#|o4-------4-------4-------4------|-4-------4-------4-------4------|
D#|--------------------------------|--------------------------------|

F#|--------------------------------|--------------------------------|
C#|--------------------------------|--------------------------------|
G#|-4-------4-------4-------4------|-4-------4-------4-------4------|
D#|--------------------------------|--------------------------------|

F#|--------------------------------|--------------------------------|
C#|--------------------------------|--------------------------------|
G#|--------------------------------|--------------------------------|
D#|-5-------5-------5-------5------|-5-------5-------5-------5------|

F#|--------------------------------|--------------------------------|
C#|--------------------------------|-------------------------------o|
G#|--------------------------------|-------------------------------o|
D#|-5-------5-------5-------5------|-0---2---0---4-h-2-h-0---2------|

Verse 2                                                          x4
F#|--------------------------------|--------------------------------|
C#|o-------------------------------|-------------------------------o|
G#|o4---4---4---4---4--------------|---------------------2---2--(2)o|
D#|----------------------0---0-(0)-|-5---5---5---5---5--------------|

F#|--------------------------------|--------------------------------|
C#|--------------------------------|--------------------------------|
G#|--4-----------------------------|--------------------------------|
D#|--------------------------------|--------------------------------|
                                                                 x3
F#|--------------------------------|--------------------------------|
C#|o-------------------------------|-------------------------------o|
G#|o-------------------------------|-------------------------------o|
D#|--------------------------------|--------------------------------|

Chorus
F#|--------------------------------|--------------------------------|
C#|o-------------------------------|--------------------------------|
G#|o4-------4-------4-------4------|-4-------4-------4-------4------|
D#|--------------------------------|--------------------------------|

F#|--------------------------------|--------------------------------|
C#|--------------------------------|--------------------------------|
G#|-4-------4-------4-------4------|-4-------4-------4-------4------|
D#|--------------------------------|--------------------------------|

F#|--------------------------------|--------------------------------|
C#|--------------------------------|--------------------------------|
G#|--------------------------------|--------------------------------|
D#|-5-------5-------5-------5------|-5-------5-------5-------5------|

F#|--------------------------------|--------------------------------|
C#|--------------------------------|-------------------------------o|
G#|--------------------------------|-------------------------------o|
D#|-5-------5-------5-------5------|-0---2---0---4-h-2-h-0---2------|

Break                                                            x8
F#|--------------------------------|--------------------------------|
C#|o-------------------------------|-------------------------------o|
G#|o-------------------------------|-------------------------------o|
D#|--------------------------------|--------------------------------|

F#|--------------------------------|--------------------------------|
C#|o-------------------------------|--------------------------------|
G#|o4---------------4--------------|-4---------------4--------------|
D#|--------------------------------|--------------------------------|

F#|--------------------------------|--------------------------------|
C#|--------------------------------|--------------------------------|
G#|-3---------------3--------------|-3---------------3--------------|
D#|--------------------------------|--------------------------------|

F#|--------------------------------|--------------------------------|
C#|--------------------------------|--------------------------------|
G#|-2---------------2--------------|-2---------------2--------------|
D#|--------------------------------|--------------------------------|

F#|--------------------------------|--------------------------------|
C#|--------------------------------|--------------------------------|
G#|--------------------------------|--------------------------------|
D#|-2---------------2--------------|-2---------------2--------------|

F#|--------------------------------|--------------------------------|
C#|--------------------------------|-------------------------------o|
G#|--------------------------------|-------------------------------o|
D#|--------------------------------|--------------------------------|

Chorus
F#|--------------------------------|--------------------------------|
C#|o-------------------------------|-------------------------------o|
G#|o-------------------------------|-------------------------------o|
D#|--------------------------------|--------------------------------|

F#|--------------------------------|--------------------------------|
C#|--------------------------------|--------------------------------|
G#|--------------------------------|--------------------------------|
D#|-5-------5-------5-------5------|-5-------5-------5-------5------|

F#|--------------------------------|--------------------------------|
C#|--------------------------------|--------------------------------|
G#|--------------------------------|--------------------------------|
D#|-5-------5-------5-------5------|-0---2---0---4-h-2-h-0---2------|

F#|--------------------------------|--------------------------------|
C#|--------------------------------|--------------------------------|
G#|-4-------4-------4-------4------|-4-------4-------4-------4------|
D#|--------------------------------|--------------------------------|

F#|--------------------------------|--------------------------------|
C#|--------------------------------|--------------------------------|
G#|-4-------4-------4-------4------|-4-------4-------4-------4------|
D#|--------------------------------|--------------------------------|

F#|--------------------------------|--------------------------------|
C#|--------------------------------|--------------------------------|
G#|--------------------------------|--------------------------------|
D#|-5-------5-------5-------5------|-5-------5-------5-------5------|

F#|--------------------------------|--------------------------------|
C#|--------------------------------|--------------------------------|
G#|--------------------------------|--------------------------------|
D#|-5-------5-------5-------5------|-0---2---0---4-h-2-h-0---2------|

F#|--------------------------------|--------------------------------|
C#|o-------------------------------|--------------------------------|
G#|o4-------4-------4-------4------|-4-------4-------4-------4------|
D#|--------------------------------|--------------------------------|

F#|--------------------------------|--------------------------------|
C#|--------------------------------|--------------------------------|
G#|-4-------4-------4-------4------|-4-------4-------4-------4------|
D#|--------------------------------|--------------------------------|

F#|--------------------------------|--------------------------------|
C#|--------------------------------|--------------------------------|
G#|--------------------------------|--------------------------------|
D#|-5-------5-------5-------5------|-5-------5-------5-------5------|
                                                                 x4
F#|--------------------------------|--------------------------------|
C#|--------------------------------|-------------------------------o|
G#|--------------------------------|-------------------------------o|
D#|-5-------5-------5-------5------|-5-------5-------5-------5------|
comments
We did not receive enough feedback on this tab! Please rate:
print report bad tab
1 2 3 4 5
I want to post or [tab]
guest
You may want to rate the tab now too:
select rating
Please do not post tabs as comments. Select "correction" instead!