Oops, an error
Loading. Please wait.

Young Cardinals Tab

version 2
version 2

Whole song

Interactive

5,293 views 3 this week
no commentswrite comment
1 2 3 4 5
2 more votes to show rating
add to favorites
launch autoscroll
font size
0
reset
how to read this tab
guitar tuner
Autoscroll
slow
fast
+/-
esc
set tempo
stop
Help us to improve Ultimate-Guitar.com Take our survey!
×
Author
listen to song for the pattern

tuning CGCFAD

---------------------------------------------------------------------|
---------------------------------------------------------------------|
---------7---9----------7---9----------------------------------------|
---0---3----------7---3----------------------------------------------|
---0---3-8---10---5---3-8---10---------------------------------------|
---0---3-8---10---0---3-8---10---------------------------------------|

Chorus
---------------------------------------------------------------------|
---------------------------------------------------------------------|
------7---------------------------------------7----------------------|
---0-----------------------------------------------------------------|
---0--8---------------------------------------8----------------------|
---0--8----0-5-3-7-5-3---10-0-0-0-10-12-0-0---8----------------------|


---------------------------------------------------------------------|
---------------------------------------------------------------------|
---------7---9----------7---9----------------------------------------|
---7---3----------7---3----------7-----------------------------------|
---5---3-8---10---5---3-8---10---5-----------------------------------|
---0---3-8---10---0---3-8---10---0-----------------------------------|

chorus
---------------------------------------------------------------------|
---------------------------------------------------------------------|
------7---------------------------------------7----------------------|
---0-----------------------------------------------------------7-----|
---0--8---------------------------------------8----------------5-----|
---0--8----0-5-3-7-5-3---10-0-0-0-10-12-0-0---8----0-5-3-7-5-3-0-----|

picked listen for pattern
---------------------------------------------------------------------|
---------------------------------------------------------------------|
---14-13-10-12-12--14-13-10-12---------------------------------------|
---12-11-10-9--10--12-11-10------7-6-5-5--------0--------------------|
----------------------------10---5-4-3-5--------0--------------------|
---------------------------------0-----5--------0--------------------|
                                                oh young cardinals

---------------------------------------------------------------------|
---------------------------------------------------------------------|
---7---------------------------------------7-------------------------|
---------------------------------------------------------------------|
---8---------------------------------------8-------------------------|
---8----0-5-3-7-5-3---10-0-0-0-10-12-0-0---8-------------------------|
nesting in the trees


---------------------------------------------------------------------|
---------------------------------------------------------------------|
------------------------7--------------------------------------------|
---------------------------------------------------------------------|
------------------------8--------------------------------------------|
---10-0-0-0-10-12-0-0---8--------------------------------------------|
oh young cardinals

play until the end
Suggest correction
Give kudos to tab author, rate the tab!
1 2 3 4 5
comments
print report bad tab
guest
You may want to rate the tab now too:
select rating
Wanna post a correction for this tab? Suggest correction