Oops, an error
Loading. Please wait.

Young Cardinals Tab

version 4
version 4

Whole song

Interactive

3,479 views 1 this week
2 commentsread comments
1 2 3 4 5
accurate
x 3
add to favorites
launch autoscroll
font size
0
reset
how to read this tab
guitar tuner
Autoscroll
slow
fast
+/-
esc
set tempo
stop
Help us to improve Ultimate-Guitar.com Take our survey!
×
Difficulty
Tuning
novice
D# G# C# F# A# D#
-------------------------------------------------------------------------------
                             Young Cardinals-Alexisonfire
-------------------------------------------------------------------------------
Tabbed by: Mike M, Richmond Hill

Im pretty sure this is accurate listen to the song for the strumming,
Pretty sick song enjoy,

Tuning:1/2 step down Db Ab Db Gb Bb Eb

Intro
e|-4-------------------------------------------------------------------|
B|-4-------------------------------------------------------------------|
G|-6—---X9-------------------------------------------------------------|
D|-6-------------------------------------------------------------------|
A|-4-------------------------------------------------------------------|
E|-4-------------------------------------------------------------------|

Verse 1
e|-4-------------------------------------------------------------------|
B|-4-------------------------------------------------------------------|
G|-6----1----------6----1----------6----1----------6----1--------------|
D|-6----2--7----9--6—---2--7----9--6----2--7----9--6----2--7----9------|
A|-4----2--7----9--4----2--7----9--4----2--7----9--4----2--7----9------|
E|-4----0--5----7-------0--5----7-------0--5----7-------0--5----7------|

Chorus
e|-4-------------------------------------------------------------------|
B|-4-------------------------------------------------------------------|
G|-6----X16------------------------------------------------------------|
D|-6------------7-7-7-7-7-7-7-7-7-7------------------------------------|
A|-4------------7-7-7-7-7-7-7-7-7-7------------------------------------|
E|-4------------5-5-5-5-5-5-5-5-5-5--0-2-0-2/4-2-0---------------------|

e|-4-------------------------------------------------------------------|
B|-4-------------------------------------------------------------------|
G|-6----X16------------------------------------------------------------|
D|-6-----------7-7-7-7-7-7-7-7-7-7-7-7-7-7-7-7-7-----------------------|
A|-4-----------7-7-7-7-7-7-7-7-7-7-7-7-7-7-7-7-7-----------------------|
E|-4-----------5-5-5-5-5-5-5-5-5-5-5-5-5-5-5-5-5-----------------------|

Verse 2
e|-4-------------------------------------------------------------------|
B|-4-------------------------------------------------------------------|
G|-6----1----------6----1----------6----1----------6----1----------6---|
D|-6----2--7----9--6—---2--7----9--6----2--7----9--6----2--7----9--6---|
A|-4----2--7----9--4----2--7----9--4----2--7----9--4----2--7----9--4---|
E|-4----0--5----7-------0--5----7-------0--5----7-------0--5----7------|
-----------------------------------------------------------------------|


e|---------------------------------------|
B|---------------------------------------|
G|---------------------------------------|
D|--------LONG PAUSE BEFORE 2nd CHORUS---|
A|---------------------------------------|
E|---------------------------------------|

Chorus
e|-4------------------------------------------------------------------|
B|-4------------------------------------------------------------------|
G|-6----X16-----------------------------------------------------------|
D|-6------------7-7-7-7-7-7-7-7-7-7-----------------------------------|
A|-4------------7-7-7-7-7-7-7-7-7-7-----------------------------------|
E|-4------------5-5-5-5-5-5-5-5-5-5--0-2-0-2/4-2-0--------------------|

e|-4--------------------------------------------------------------------|
B|-4--------------------------------------------------------------------|
G|-6----X16--------------------------------------6----------------------|
D|-6-----------7-7-7-7-7-7-7-7-7-7-7-7-7-7-7-7-7-6—Let It Ring----------|
A|-4-----------7-7-7-7-7-7-7-7-7-7-7-7-7-7-7-7-7-4----------------------|
E|-4-----------5-5-5-5-5-5-5-5-5-5-5-5-5-5-5-5-5------------------------|

Solo (or whatever you wanna call it)
e----------------------------------------------------------------------|
B----9-----7-----5-----7-----------------------------------------------|
G--6-----5-----4-----3-------------------------------------------------|
D----------------------------------------------------------------------|
A----------------------------------------------------------------------|
E----------------------------------------------------------------------|

e-----------------------------------------------------------------------|
B-----------------------------------------------------------------------|
G-6-------5------4------------------------------------------------------|
D-6—X16---5-X16--4-X16---4-X16------------------------------------------|
A-4-------3------2-------4----------------------------------------------|
E-4-------3------2-------2----------------------------------------------|

Chorus
e|-4--------------------------------------------------------------------|
B|-4--------------------------------------------------------------------|
G|-6--------------------------------------------------------------------|
D|-6---7-7-7-7-7-7-7-7-7-7----------------------------------------------|
A|-4---7-7-7-7-7-7-7-7-7-7----------------------------------------------|
E|-4-- 5-5-5-5-5-5-5-5-5-5--0-2-0-2/4-2-0-------------------------------|

e|-4-------------------------------------------------------------------|
B|-4-------------------------------------------------------------------|
G|-6----X16------------------------------------------------------------|
D|-6-----------7-7-7-7-7-7-7-7-7-7-7-7-7-7-7-7-7-—---------------------|
A|-4-----------7-7-7-7-7-7-7-7-7-7-7-7-7-7-7-7-7-----------------------|
E|-4-----------5-5-5-5-5-5-5-5-5-5-5-5-5-5-5-5-5-----------------------|


Outro
e|-------------------------------------------------------------|
B|-4-4-4-4-4-4-4-----------------------------------------------|
G|-4-4-4-4-4-4-4-----------------------------------------------|Keep Repeating till song
D|-6-6-6-6-6-6-6--7-7-7-7-7-7-7-7-7-----------ends, end on--7--|
A|-4-4-4-4-4-4-4--7-7-7-7-7-7-7-7-7-----------            --7--|
E|-4-4-4-4-4-4-4--5-5-5-5-5-5-5-5-5-----------            --5--|

| /  slide up
| \  slide down
| h  hammer-on
| p  pull-off
| ~  vibrato
| +  harmonic
| x  Mute note
Suggest correction
What's this?
You can suggest a correction to this tab. Community and Mods will review your correction and vote to approve or reject it.
comments
We did not receive enough feedback on this tab! Please rate:
print report bad tab
1 2 3 4 5
2 comments total.
0 reply
bucketheadShred 312 wrote on July 12 2009, 08:05 pm

The tab is right but Db Ab Db etc is drop d flat.
should be Eb Ab Db etc

0 reply
YesGuitarNubYes 264 wrote on July 23 2009, 03:59 pm

lol long pause before chorus with that fukcing kick ass drum fill :D good tab n e ways

guest
You may want to rate the tab now too:
select rating
Please do not post tabs as comments. Select "correction" instead!