Oops, an error
Loading. Please wait.

I Dont Know If I Should Stay bass

601 views 1 this week
no commentswrite comment
1 2 3 4 5
3 more votes to show rating
add to favorites
×
Save as Personal and add changes to this tab that will be seen only by you. Learn more ›
×
You can save this tab as Personal to edit and correct it or add notes. All changes will be seen only by you. Learn more »
launch autoscroll
font size
0
reset
guitar tuner
edit
Autoscroll
slow
fast
+/-
esc
set tempo
stop
Author
The whole song there ain't any guitar nor bass guitar playin accept for a at the
end of the song (if you have the full version of the song, its 03:35)

Fall in at 02:07
G|-----------------------|
D|-----------------------|
A|-----------------------|
E|---6-6-6-6-6-6-6-6-----|

G||------------------|---------------------------||
D||O-----------------|--------------------------O||X2
A||O-----------------|--------------------------O||
E||--4-4-4-4-4-4-4-4-|-6-6-6-6-6-6-6-6-----------||

G|-------------------|----------------------------|
D|-------------------|----------------------------|
A|-------------------|----------------------------|
E|---8-8-8-8-8-8-8-8-|-\3-3-3-3-3-3-3-3-----------|

G|-------------------|----------------------------|
D|-------------------|----------------------------|
A|-------------------|-6-6-6-6-6-6-6-6------------|
E|---4-4-4-4-4-4-4-4-|----------------------------|

G|------------------------------------------------|
D|------------------------------------------------|
A|--------------------------6~~-------------------|
E|---6~~~---(litlle rest)--6---6~~-\3~~-----------|

||   ||                   \=Slide down
||O O||= Repeat this part ~= hold for a moment this tone
||O O||
||   ||

            
            
Suggest correction
Creating personal tab
Creating personal tab
You can edit any tab online and save it as your Personal.

You can edit, replace or remove any tab part or add personal notes – all changes will be seen only by you.

Personal tabs can be accessed anytime from any device, even offline.
Learn more »
Give kudos to tab author, rate the tab!
1 2 3 4 5
comments
print report bad tab
guest
You may want to rate the tab now too:
select rating
Wanna post a correction for this tab? Suggest correction