Oops, an error
Loading. Please wait.

Preludio De Adios Tab

3,361 views 3 this week
no commentswrite comment
1 2 3 4 5
please rate
add to favorites
launch autoscroll
font size
0
reset
how to read this tab
guitar tuner
Autoscroll
slow
fast
+/-
esc
set tempo
stop
Help us to improve Ultimate-Guitar.com Take our survey!
×
e|----------0--------|----------0--------|----------0--------|
b|--------0---0------|--------0---0------|--------0---0------|
g|------5-------5----|------5-------5----|------5-------5----|
d|----5-----------5--|----4-----------4--|----3-----------3--|
a|--0----------------|--0----------------|--0----------------|
e|-------------------|-------------------|-------------------|

                         III............
e|| --5--------0--------|------3-5-3-----0-|-0-------0-------|-----0-5-7-8-|
b|| ---------0-------0--|------3-----3-----|-------3---3-----|-----3-------|
g||*-------5-------5----|------5-------5---|-----5-------5---|-----5---7-9-|
d||*-----5-------5------|----5-------------|---4-----------4-|---4---------|
a|| --0-----------------|--0---------------|-0---------------|-0-----------|
e|| --------------------|------------------|-----------------|-------------|

  V...............  III.............
e|-8-------5-------|-----5-----3-----|---------0-------|-----------0-------|
b|-----5-----5-----|-----4-4-----4---|-------0---0-----|---------0---0-----|
g|-------7-----7---|-----4---4-----4-|-----0-------0---|-------0-------0---|
d|---7-----------7-|-----------------|---4-----------4-|----4------------4-|
a|-5---------------|---3-------------|-3---------------|-------------------|
e|-----------------|-3---------------|-----------------|-3-----------------|

                                  II..............             
e|-0---------------|-----0-------|-----------------|----------------0-|
b|---------3-------|---1---3-1-0-|-3-----3---------|-------0-1--------|
g|-----2-------2---|-------4-2-1-|-----4---5---2---|-----2--------2---|
d|---3---3---3---3-|-------------|---2-------2---2-|---2--------2-----|
a|-2---------------|-------------|-0---------------|------------------|
e|-----------------|-0-----------|-----------------|-3----------------|

                                  1st.................................
e|-0---------------|-----0-------|---------------0-|-1-----1-0------- ||
b|---------3-------|---1---3-1-0-|-------0-1---3---|-----3-------1--- ||
g|-----2-------2---|-------4-2-1-|-----2-----------|---2-------1---1-*||
d|-----------------|-------------|---2-------2-----|-----------------*||
a|---3---3---3---3-|-------------|-0---------------|-2--------------- ||
e|-1---------------|-0-----------|-----------------|---------0------- ||

   2nd..........  Segno
e|| ---------------|------------0|
b|| 0-------2------|----2---3----|
g||*1---1-------1--|----4---4----|
d||*--2---2---2---2|--4---4---4--|
a|| 0--------------|0------------|
e|| ---------------|-------------|

   II............. II............ IV.............
e|-5-------5------|----4-2-----2--|---------------|-----------------|
b|-----2-------2--|----2---5-----2|------4--5-----|---0---0---0---0-|
g|-------4-------4|----4-----4----|----6-------6--|---0---0---0---0-|
d|---2-------2----|--2------------|--6-------6---6|-----4-------2---|
a|-0--------------|0--------------|4--------------|---------0-------|
e|----------------|---------------|---------------|-0---------------|

                  2nd.............                 2nd.............
                 e|-5---4-2------|               e|-------7-----3-|
                 b|-----2---5-7--|               b|-------7-----3-|
                 g|-----4---6-7--|               g|-------7-----4-|
                 d|---2----------|               d|----9------2---|
                 a|-0------------|               a|---------0-----|
                 e|--------------|               e|--0------------|

e|-2-------2-------|-----0-2-4-----2-|-0---------------|
b|-----0-------0---|-----0-----0-----|-------0-------0-|
g|---2---2---2---2-|---1---------1---|-----1---1---1---|
d|-0---------------|-0---------------|---2-------2-----|
a|-----------------|-----------------|-4---------------|
e|-----------------|-----------------|-----------------|

                                     Coda 
e|-----------------|-0--------------- ||-----0-------|-----------------|
b|-------0-------0-|-------0-------0- ||---1---3-1-0-|-3-----3-1-------|
g|-----0---0---0---|-----2---2---2---*||-------4-2-1-|-----2-------2---|
d|---2-------2-----|---3-------3-----*||-------------|---2-------2---2-|
a|-3---------------|-2--------------- ||-------------|-0---------------|
e|-----------------|----------------- ||-0-----------|-----------------|

                                                            D.S al coda
e|---------------0-|-0---------------|-----0-------||-----------------|
b|-------0-1-------|-------3-------3-|---1---3-1-0-||-3-------2-------|
g|-----2-------2---|-----2---2---2---|-------4-2-1-||-1---1-------1---|
d|---2-------2-----|-----------------|-------------||---2---2---2---2-|
a|-----------------|---3-------3-----|-------------||-0---------------|
e|-3---------------|-1---------------|-0-----------||-----------------|

 Coda
e|-----0-------|-----------------|---------------0-|-0---------------|
b|---1---3-6-5-|-3-----3-1-------|-------0-1-------|---------3-------|
g|-------4-7-5-|-----4-------2---|-----2-------2---|-----4-------4---|
d|-------------|---2-------2---2-|---2-------2-----|---4---4---4---4-|
a|-------------|-0---------------|-----------------|-0---------------|
e|-0-----------|-----------------|-3---------------|-----------------|

                 I
e|-----0-------|----<12>-|---<19>-|---------0-------|
b|---1---3-1-0-|---------|-3------|-------0---0-----|
g|-------4-2-1-|-2-------|-2------|-----5-------5---|
d|-------------|-2-------|-3------|---5-----------5-|
a|-------------|-3-------|-2------|-0---------------|
e|-0-----------|-1-------|--------|-----------------|

                                         Fine
e|---------0-------|---------0-------|---|-3-||
b|-------0---0-----|-------0---0-----|---|-3-||
g|-----5-------5---|-----5-------5---|---|-5-||
d|---4-----------4-|---3-----------3-|---|-5-||
a|-0---------------|-0---------------|-0-|---||
e|-----------------|-----------------|---|---||
Suggest correction
Give kudos to tab author, rate the tab!
1 2 3 4 5
comments
print report bad tab
guest
You may want to rate the tab now too:
select rating
Please do not post tabs as comments. Select "correction" instead!