Oops, an error
Loading. Please wait.

Fun bass

1,035 views 1 this week
no commentswrite comment
1 2 3 4 5
2 more votes to show rating
add to favorites
×
Save as Personal and add changes to this tab that will be seen only by you. Learn more ›
×
You can save this tab as Personal to edit and correct it or add notes. All changes will be seen only by you. Learn more »
launch autoscroll
font size
0
reset
guitar tuner
edit
Autoscroll
slow
fast
+/-
esc
set tempo
stop
Author
Difficulty
-------------------------------------------------------------------------------
                         FUN - Algernon Cadwallader
-------------------------------------------------------------------------------
Tabbed by: Joe Owens
E-mail: joeowens994@hotmail.com
Video: http://www.youtube.com/watch?v=3CimTk5NZQ0

The name of this song sums it up best.

Tuning: Standard (EADG)

Intro:
G|----------------|----------------|----------------|----------------|
D|----------------|----------------|----------------|----------------|
A|----------------|-5--5-5---5-5-5-|-5--5-5---5-5-5-|\9--9-9---9-9-9-|
E|-5--5-5---5-5-5-|----------------|----------------|----------------|


Verse 1:
G|----------------|----------------|----------------|----------------|
D|----------------|----------------|----------------|----------------|
A|----------------|-5--5-5---5-5-5-|-5--5-5---5-5-5-|\9--9-9---9-9-9-|
E|-5--5-5---5-5-5-|----------------|----------------|----------------|

G|----------------|----------------|----------------|----------------|
D|----------------|----------------|----------------|----------------|
A|----------------|-5--5-5---5-5-5-|-5--5-5---5-5-5-|\9--9-9---9-9-9-|
E|-5--5-5---5-5-5-|----------------|----------------|----------------|

G|----------------|----------------|----------------|----------------|
D|----------------|----------------|----------------|----------------|
A|----------------|-5--5-5---5-5-5-|-5--5-5---5-5-5-|\9--9-9---9-9-9-|
E|-5--5-5---5-5-5-|----------------|----------------|----------------|

G|----------------|----------------|----------------|----------------|
D|----------------|----------------|----------------|----------------|
A|----------------|-5--5-5---5-5-5-|-5--5-5---5-5-5-|\9--9-9---9-9-9-|
E|-5--5-5---5-5-5-|----------------|----------------|----------------|


Chorus:
G|----------------|----------------|----------------|----------------|
D|----------------|----------------|-7-7-7-7-7-7-7-7|----------------|
A|-5-----7-7-----9|-9-----5-5------|----------------|-5-5-5-5-5-5-5-5|
E|----------------|----------------|----------------|----------------|

G|----------------|----------------|----------------|----------------|
D|----------------|----------------|-7-7-7-7-7-7-7-7|----------------|
A|-5-----7-7-----9|-9-----5-5------|----------------|-5-5-5-5-5-5-5-5|
E|----------------|----------------|----------------|----------------|

G|----------------|----------------|----------------|----------------|
D|----------------|----------------|-7-7-7-7-7-7-7-7|----------------|
A|-5-----7-7-----9|-9-----5-5------|----------------|-5-5-5-5-5-5-5-5|
E|----------------|----------------|----------------|----------------|

G|----------------|----------------|----------------|----------------|
D|----------------|----------------|----------------|----------------|
A|-5-----7-7-----9|-9-----5-5-----5|-5-----7-7-----9|-9-----5-5-----5|
E|----------------|----------------|----------------|----------------|

G|----------------|----------------|
D|----------------|----------------|
A|-5-5-5-5-7-7-7-7|-9-9-9-9-5-5-5-4|
E|----------------|----------------|


Verse 2:
G|----------------|----------------|----------------|----------------|
D|----------------|----------------|----------------|----------------|
A|----------------|-5--5-5---5-5-5-|-5--5-5---5-5-5-|\9--9-9---9-9-9-|
E|-5--5-5---5-5-5-|----------------|----------------|----------------|

G|----------------|----------------|----------------|----------------|
D|----------------|----------------|----------------|----------------|
A|----------------|-5--5-5---5-5-5-|-5--5-5---5-5-5-|\9--9-9---9-9-9-|
E|-5--5-5---5-5-5-|----------------|----------------|----------------|

G|----------------|----------------|----------------|----------------|
D|----------------|----------------|----------------|----------------|
A|----------------|-5--5-5---5-5-5-|-5--5-5---5-5-5-|\9--9-9---9-9-9-|
E|-5--5-5---5-5-5-|----------------|----------------|----------------|

G|----------------|----------------|----------------|----------------|
D|----------------|----------------|----------------|----------------|
A|----------------|-5--5-5---5-5-5-|-5--5-5---5-5-5-|\9--9-9---9-9-9-|
E|-5--5-5---5-5-5-|----------------|----------------|----------------|

G|----------------|
D|----------------|
A|-4------2-4-0---|
E|----------------|


Bridge:
G|----------------|----------------|----------------|----------------|
D|----------------|----------------|----------------|----------------|
A|----------------|----------------|----------------|----------------|
E|-5-5-5-5-5-5-5-5|-5-5-5-5-5-5-5-5|-2-2-2-2-2-2-2-2|-2-2-2-2-2-2-2-2|

G|----------------|----------------|----------------|
D|----------------|----------------|----------------|
A|-5-5-5-5-5-5-5-5|-5-5-5-5-5-5-5-5|-4------2-4-0---|
E|----------------|----------------|----------------|

G|----------------|----------------|----------------|----------------|
D|----------------|----------------|----------------|----------------|
A|----------------|----------------|----------------|----------------|
E|-5-5-5-5-5-5-5-5|-5-5-5-5-5-5-5-5|-2-2-2-2-2-2-2-2|-2-2-2-2-2-2-2-2|

G|----------------|----------------|----------------|----------------|
D|----------------|----------------|----------------|----------------|
A|-5-5-5-5-5-5-5-5|-5-5-5-5-5-5-5-5|-4------2-4-0---|-4------2-4-0---|
E|----------------|----------------|----------------|----------------|

Then there's a guitar and drums bit for 4 bars, followed with:
G|----------------|----------------|
D|----------------|----------------|
A|-5-5-5-5--------|---------5-5-5-5|
E|---------0-0-0-0|-2-2-2-2--------|


Verse 3:
G|----------------|----------------|----------------|----------------|
D|-7--7-7---7-7-7-|----------------|----------------|----------------|
A|----------------|-5--5-5---5-5-5-|-5-----7-7-----9|-9-----5-5------|
E|----------------|----------------|----------------|----------------|

G|----------------|----------------|----------------|----------------|
D|-7--7-7---7-7-7-|----------------|----------------|----------------|
A|----------------|-5--5-5---5-5-5-|-5-----7-7-----9|-9-----5-5------|
E|----------------|----------------|----------------|----------------|

G|----------------|----------------|----------------|----------------|
D|-7--7-7---7-7-7-|----------------|----------------|----------------|
A|----------------|-5--5-5---5-5-5-|-5-----7-7-----9|-9-----5-5------|
E|----------------|----------------|----------------|----------------|


Final:
G|----------------|----------------|----------------|----------------|
D|----------------|----------------|----------------|----------------|
A|-5-----7-7-----9|-9-----5-5------|-5-5-5-5-7-7-7-7|-9-9-9-9-5-5-5-5|
E|----------------|----------------|----------------|----------------|

G|----------------|----------------|----------------|----------------|
D|----------------|----------------|----------------|----------------|
A|-5-5-5-5-7-7-7-7|-9-9-9-9--------|----------------|----------------|
E|----------------|---------9------|----------------|----------------|

Let that last note ring for a few bars. It sounds strange on its own but
listen to the song :)

            
            
Suggest correction
Creating personal tab
Creating personal tab
You can edit any tab online and save it as your Personal.

You can edit, replace or remove any tab part or add personal notes – all changes will be seen only by you.

Personal tabs can be accessed anytime from any device, even offline.
Learn more »
Give kudos to tab author, rate the tab!
1 2 3 4 5
comments
print report bad tab
guest
You may want to rate the tab now too:
select rating
Wanna post a correction for this tab? Suggest correction