Oops, an error
Loading. Please wait.

Horror Bass Tab

version 1
version 1

Whole song

Interactive

443 views 1 this week
1 commentread comment
1 2 3 4 5
3 more votes to show rating
add to favorites
launch autoscroll
font size
0
reset
guitar tuner
Autoscroll
slow
fast
+/-
esc
set tempo
stop
Help us to improve Ultimate-Guitar.com Take our survey!
×
Difficulty
novice
Tabbed by: Guilherme Freitas 
e-mail: guilhermethf@hotmail.com

Intro
G|--------------------------------------------------------------------------|
D|--------------------------------------------------------------------------|
A|------------------5-------5-----------------------------------------------|
E|--5-------5---------------------------------------------------------------|


Verse: Porcelain, seat reading... 
G|------------------|-------------------------------------------------------|
D|----------7-------|---------4---------------------------------------------|
A|------7-------7---|-----5-------2-----------------------------------------|
E|--5---------------|--3----------------------------------------------------|

 
followed frankenstein...

 
G|------------------|
D|----------4-------|
A|------5-----------|
E|--3---------------|


Chorus: And the walkind dead... 
G|--------------------------------------------------------------------------|
D|----------------5------5--------------------------------------------------|
A|---------5----------------------------------------------------------------|
E|--2-----------------------------------------------------------------------|


Outro: (Ooooooh, oooooh we ooooh...)
G|--------------------------------------------------------------------------|
D|----------------5------5--------------------------------------------------|
A|---------5----------------------------------------------------------------|
E|--2-----------------------------------------------------------------------|
Suggest correction
Give kudos to tab author, rate the tab!
1 2 3 4 5
comments
print report bad tab
1 comment total.
0 reply
EWaffle 104 Apr 15, 2014 11:11 PM

I think the "chorus" is
G|------------------------------
D|------------------------------
A|----------------5------5------
E|--2------5--------------------

guest
You may want to rate the tab now too:
select rating
Wanna post a correction for this tab? Suggest correction