Oops, an error
Loading. Please wait.

Pitfall Tab

112 views 12 this week
no commentswrite comment
1 2 3 4 5
1 last vote to show rating
add to favorites
launch autoscroll
font size
0
reset
how to read this tab
guitar tuner
Autoscroll
slow
fast
+/-
esc
set tempo
stop
Help us to improve Ultimate-Guitar.com Take our survey!
×
Author
Difficulty
advanced
About this tab version
This tab of Algernon Cadwallader's song Pitfall specifically covers the guitar-work in the studio version of the song--the live version is somewhat different. This tab is also written to clearly show the syncopated rhythms within the song. Was this info helpful? Yes No
Tabbed by: Isaac
E-mail: talleyi21@gmail.com

Tuning: E A D G B E

[0:00]

e|-------------------------|-------------------------|-------------------------|-------------------------|
B|-12----------12----------|-12----------12----------|-------------------------|-------------------------|
G|-13----------13----------|-13----------13----------|-13----13----x--13----11-|----11----13-13-11\---8--|
D|-11----------11----------|-11----------11----------|-11----11----x--11----x--|----x-----x--x--x-----x--|
A|-0-----------0-----------|-0-----------0-----------|-0-----0-----x--0-----11-|----11----12-12-11\---7--|
E|-------------------------|-------------------------|-------------------------|-------------------------|


e|----7-p0-----------------|----------------0--------|-------------------------|-4-----4-----------------|
B|----------9-p7-p0--------|----------------0--------|-------------------------|-x-----x-----7--7--------|
G|-8-----------------------|----------------------6--|----6--6-----6-----6-----|-6-----6-----4--4-----6--|
D|-x-----------------------|-------4-h6--6--------6--|----6--6-----6-----6-----|-6-----6-----6--6-----6--|
A|-x-----------------------|----2-----------------0--|----0--0-----0-----0-----|-0-----0-----0--0-----0--|
E|----------------------2--|h4-----------------------|-------------------------|-------------------------|

                            Let each note ring out here
e|-------------------------|------------11-----------|-------------0-----------|-------------------------|
B|-------------------------|----------12-------------|----------4--------4-----|-------------12----------|
G|----6--6-----6-----6-----|-------13----------------|-------4--------------4--|----------13-------13----|
D|----6--6-----6-----6-----|-------------------------|-------------------------|-------11-------------11-|
A|----0--0-----0-----0-----|-------------------------|-0-----------------------|-0-----------------------|
E|-------------------------|-7/+12-------------------|-------------------------|-------------------------|


[0:14]
The format for the solo is a bit different to better illustrate the rhythms, but each section separated
by the "|" still signifies a measure containing four beats.
e|-------------0-----------|-------------------------|-------------0-----------|
B|----------4--------4-----|-------------12----------|----------4--------4-----|
G|-------4--------------4--|----------13-------13----|-------4--------------4--|
D|-------------------------|-------11-------------11-|-------------------------|
A|-0-----------------------|-0-----------------------|-0-----------------------|
E|-------------------------|-------------------------|-------------------------|

  Use tons of overdrive and vibrato here to sound like the recording
e|-------------------------------------------------|-------------------------------------------------|
B|-------------------------------------12~---------|-------------12~---------------12~---------------|
G|-------------------9----h11---h13----------13~---|-13~~--------------13~---13~---------13~---13~---|
D|-2/----9----h11----------------------------------|-------------------------------------------------|
A|-------------------------------------------------|-------------------------------------------------|
E|-------------------------------------------------|-------------------------------------------------|


e|-------------------------------14----------------|-------------------------11~~--------------------|
B|-12~---------------12~---------------12----------|-------------------12~---------------12----9-----|
G|-------13---p11----------11~---------------11----|-11----13~~--------------------------------------|
D|-------------------------------------------------|-------------------------------------------------|
A|-------------------------------------------------|-------------------------------------------------|
E|-------------------------------------------------|-------------------------------------------------|


e|-------------------------------------------------|-12----------------------0-----------------------|
B|-12----12p9-p0-----------------------------------|-------------------------0-----------------------|
G|-------------------11----9-----------11----------|-13----11----13----11h13-13----------x-----11----|
D|-------------------------------------------------|-------------------------------------x-----x-----|
A|-------------------------------------------------|-------------------------------------x-----11----|
E|-------------------------------------------------|-------------------------------------------------|

                                                    Flatten this E Major chord by pushing the neck forward
e|-------------------------|----7-p0-----------------|----------------0-----0--|-------------------------|
B|-------------------------|----------9-p7-p0--------|----------------0-----0--|-------------------------|
G|----11----13-13-11\---8--|-8-----------------------|----------------------1--|-------------------------|
D|----x-----x--x--x-----x--|-x-----------------------|-------4-h6--6--------2--|-------------------------|
A|----11----12-12-11\---7--|-x-----------------------|----2-----------------2--|-------------------------|
E|-------------------------|----------------------2--|h4--------------------0--|-------------------------|

  Hold the chord throughout these three measures                                   Quickly mute this chord
e|-------------------------|-------------------------|-------------------------|-0-----------------------|
B|-------------------------|-------------------------|-------------------------|-0-----------------------|
G|-------------------------|-------------------------|-------------------------|-1-----------------------|
D|-------------------------|-------------------------|-------------------------|-2-----------------------|
A|-------------------------|-------------------------|-------------------------|-2-----------------------|
E|-------------------------|-------------------------|-------------------------|-0-----------------------|

      Rest for these measures                                        PM--------|
e|-------------------------|-------------------------|-------------------------|
B|-------------------------|-------------------------|-------------------------|
G|-------------------------|-------------------------|-------------------------|
D|-------------------------|-------------------------|----------------2--2--2--|
A|-------------------------|-------------------------|----------------0--0--0--|
E|-------------------------|-------------------------|-------------------------|


[0:43]


e|----------0--------------|----------0--------------|-------------------------|-------------------------|
B|----------0-----0--------|----------0-----0--------|-------------------------|----------0--4-h5-p4--0--|
G|-1-h2-p1-----------------|-1-h2-p1-----------------|----------------1--------|-------------------------|
D|-------------------------|-------------------------|-4--2--------------------|----4-h6-----------------|
A|-------------------------|-------------------------|----------4-----------2--|-------------------------|
E|-------------------------|-------------------------|-------------------------|-------------------------|


e|----------0--------------|----------0--------------|-------------------------|-------------5-p4--------|
B|----------0-----0--------|----------0-----0--------|-------------------------|-------5--7--------7-p0--|
G|-1-h2-p1-----------------|-1-h2-p1-----------------|----------------1--------|----6--------------------|
D|-------------------------|-------------------------|-4--2-----------------4/-|h7-----------------------|
A|-------------------------|-------------------------|----------4--------------|-------------------------|
E|-------------------------|-------------------------|-------------------------|-------------------------|


e|----------0--------------|----------0--------------|-------------------------|-------------------------|
B|----------0-----0--------|----------0-----0--------|-------------------------|----------0--4-h5-p4--0--|
G|-1-h2-p1-----------------|-1-h2-p1-----------------|----------------1--------|-------------------------|
D|-------------------------|-------------------------|-4--2--------------------|----4-h6-----------------|
A|-------------------------|-------------------------|----------4-----------2--|-------------------------|
E|-------------------------|-------------------------|-------------------------|-------------------------|


e|----------0--------------|----------0--------------|-------------------------|-------------------------|
B|----------0-----0--------|----------0-----0--------|-------------------------|-------------1-----------|
G|-1-h2-p1-----------------|-1-h2-p1-----------------|----------------1--------|-------2-----------------|
D|-------------------------|-------------------------|-4--2-----------------2--|h4-----------------------|
A|-------------------------|-------------------------|----------4--------------|-------------------------|
E|-------------------------|-------------------------|-------------------------|-------------------------|


[1:06]

                                                         PM---|
e|-------------0-----------|-------------------------|-------------------------|-------------------------|
B|----------4--------4-----|-------------5-p4--0-----|----------4-----4--4-----|-------------------------|
G|-------4--------------4--|----------4-----------4--|h6--------4-----4--4-----|-4-----4--4--6--6-\4--4--|
D|-------------------------|-------4-----------------|----2--2--2-----2--2-----|-4-----4--4--7--7-\6--6\-|
A|-0-----------------------|-2-----------------------|----0--0--0-----0--0-----|-2-----2--2--------------|
E|-------------------------|-------------------------|-------------------------|-------------------------|

     PM---|                                              PM---|
e|-------------------------|-------0--------------0--|-------------------------|-------------0--0-----0--|
B|----------4-----4--4-----|-------0--------------0--|----------4-----4--4-----|-------------0--0-----0--|
G|----------4-----4--4-----|-4-----4--4-----8-----9--|----------4-----4--4-----|-4-----4--4--6--6\-4--4--|
D|-4--2--2--2-----2--2-----|-4-----4--4/-9-----9-----|----2--2--2-----2--2-----|-4-----4--4--7--7\-6--6\-|
A|----0--0--0-----0--0-----|-2-----2-----------------|----0--0--0-----0--0-----|-2-----2--2--------------|
E|-------------------------|-------------------------|-------------------------|-------------------------|

     PM---|                                              PM---|
e|-------------0-----------|-------------------------|-------------------------|-------------0--0-----0--|
B|----------4-----4--4-----|-------------5-p4--0-----|----------4-----4--4-----|-------------0--0-----0--|
G|----------4-----4--4-----|----------4-----------4--|h6--------4-----4--4-----|-4-----4--4--6--6-\4--4--|
D|-4--2--2--2-----2--2-----|-------4-----------------|----2--2--2-----2--2-----|-4-----4--4--7--7-\6--6\-|
A|----0--0--0-----0--0-----|-2-----------------------|----0--0--0-----0--0-----|-2-----2--2--------------|
E|-------------------------|-------------------------|-------------------------|-------------------------|

     PM---|                                              PM---|
e|-------------------------|-------0--------------0--|-------------------------|-------------------------|
B|----------4-----4--4-----|-------0--------------0--|----------4-----4--4-----|-------------------------|
G|----------4-----4--4-----|-4-----4--4-----8-----9--|----------4-----4--4-----|-4-----4--4--6--6\-4--x--|
D|-4--2--2--2-----2--2-----|-4-----4--4/-9-----9-----|----2--2--2-----2--2-----|-4-----4--4--7--7\-6--x--|
A|----0--0--0-----0--0-----|-2-----2-----------------|----0--0--0-----0--0-----|-2-----2--2--------------|
E|-------------------------|-------------------------|-------------------------|-------------------------|


[1:29]

                                                                                    Tap with picking hand
e|-0--0--0--0--0--0--0--0--|-0--0--0--0--0--0--0--0--|-0--0--0--0--0--0--0--0--|-------------------------|
B|-0--0--0--0--0--0--0--0--|-0--0--0--0--0--0--0--0--|-0--0--0--0--0--0--0--0--|----x-----14h19p12\11-x--|
G|-6--6--6--6--6--6--6--6--|-6--6--6--6--6--6--6--6--|-6--6--6--6--6--6--6--6--|-6--x--13-------------x--|
D|-6--6--6--6--6--6--6--6--|-6--6--6--6--6--6--6--6--|-6--6--6--6--6--6--6--6--|-6--x-----------------x--|
A|-7--7--7--7--7--7--7--7--|-x--x--x--x--x--x--x--x--|-7--7--7--7--7--7--7--7--|-x--x-----------------x--|
E|-5--5--5--5--5--5--5--5--|-7--7--7--7--7--7--7--7--|-5--5--5--5--5--5--5--5--|-7--x-----------------x--|

                                                                                   Tremolo pick like crazy
e|-0--0--0--0--0--0--0--0--|-0--0--0--0--0--0--0--0--|-0--0--0--0--0--0--0--0--|-------------------------|
B|-0--0--0--0--0--0--0--0--|-0--0--0--0--0--0--0--0--|-0--0--0--0--0--0--0--0--|-------------------------|
G|-6--6--6--6--6--6--6--6--|-6--6--6--6--6--6--6--6--|-6--6--6--6--6--6--6--6--|-6--x--------------------|
D|-6--6--6--6--6--6--6--6--|-6--6--6--6--6--6--6--6--|-6--6--6--6--6--6--6--6--|-6--x--------------------|
A|-7--7--7--7--7--7--7--7--|-x--x--x--x--x--x--x--x--|-7--7--7--7--7--7--7--7--|-x--x--9-9-9-9/11-/13/14-|
E|-5--5--5--5--5--5--5--5--|-7--7--7--7--7--7--7--7--|-5--5--5--5--5--5--5--5--|-7--x--7-7-7-7/9-9/x-x-x-|


[1:40]

  Strumming pattern here varies a bit throughout
e|-------0-----0--0-----0--|----0--0--0--0-----0-----|-------0-----0--0-----0--|----0--0--0--0-----------|
B|-------0-----0--0--x--0--|----0--0--0--0-----0--x--|-------0-----0--0-----0--|----0--0--0--0-----0-(0)-|
G|-------1-----1--1--x--2--|----2--2--2--2-p1--0--x--|-------6-----6--6-----6--|----6--6--6--6--6--6--x--|
D|-2-----2-----2--2--x--2--|----2--2--2--2-----0--x--|-6-----6-----6--6-----6--|----6--6--6--6--6--6--x--|
A|-2-----2-----2--2--x--2--|----2--2--2--2-----0--x--|-7-----7-----7--7-----7--|----7--7--7--7--7--7--x--|
E|-0-----0-----0--0--x--0--|----0--0--0--0-----0--x--|-5-----5-----5--5-----5--|----5--5--5--5--5--5--x--|


e|-------0-----0--0-----0--|----0--0--0--0-----0-----|-------0-----0--0-----0--|----0--0--0--0-----0--0--|
B|-------0-----0--0--x--0--|----0--0--0--0-----0--x--|-------0-----0--0-----0--|----0--0--0--0-----0--0--|
G|-------1-----1--1--x--2--|----2--2--2--2-p1--0--x--|-------6-----6--6-----6--|----6--6--6--6--6--0--0--|
D|-2-----2-----2--2--x--2--|----2--2--2--2-----0--x--|-6-----6-----6--6-----6--|----6--6--6--6--6--0--0--|
A|-2-----2-----2--2--x--2--|----2--2--2--2-----0--x--|-7-----7-----7--7-----7--|----7--7--7--7--7--0--0--|
E|-0-----0-----0--0--x--0--|----0--0--0--0-----0--x--|-5-----5-----5--5-----5--|----5--5--5--5--5--0--0--|



e|-------0-----0--0-----0--|----0--0--0--0-----0-----|-------0-----0--0-----0--|----0--0--0--0-----------|
B|-------0-----0--0--x--0--|----0--0--0--0-----0--x--|-------0-----0--0-----0--|----0--0--0--0-----0--x--|
G|-------8b----8b-8b-x--x--|----x--x--x--x-----x--x--|-------6-----6--6-----6--|----6--6--6--6--6--6--x--|
D|-x-----x-----x--x--x--8b-|----8b-8b-8b-8b\7--7--x--|-6-----6-----6--6-----6--|----6--6--6--6--6--6--x--|
A|-x-----6b----6b-6b-x--x--|----x--x--x--x-----x--x--|-7-----7-----7--7-----7--|----7--7--7--7--7--7--x--|
E|-0-----0-----0--0--x--6b-|----6b-6b-6b-6b\5--5--x--|-5-----5-----5--5-----5--|----5--5--5--5--5--5--x--|


e|-------0-----0--0-----0--|----0--0--0--0-----0-----|-------0-----0--0-----0--|----0--0--0--0-----------|
B|-------0-----0--0--x--0--|----0--0--0--0-----0--x--|-------0-----0--0-----0--|----0--0--0--0-----0-(0)-|
G|-------1-----1--1--x--2--|----2--2--2--2-p1--0--x--|-------6-----6--6-----6--|----6--6--6--6--6--6--x--|
D|-2-----2-----2--2--x--2--|----2--2--2--2-----0--x--|-6-----6-----6--6-----6--|----6--6--6--6--6--6--x--|
A|-2-----2-----2--2--x--2--|----2--2--2--2-----0--x--|-7-----7-----7--7-----7--|----7--7--7--7--7--7--x--|
E|-0-----0-----0--0--x--0--|----0--0--0--0-----0--x--|-5-----5-----5--5-----5--|----5--5--5--5--5--5--x--|


[2:03]


e|-------0-----0--0-----0--|----0--0--0--0-----0-----|-------0-----0--0-----0--|----0--0--0--0-----------|
B|-------0-----0--0--x--0--|----0--0--0--0-----0--x--|-------0-----0--0-----0--|----0--0--0--0-----0-(0)-|
G|-------1-----1--1--x--2--|----2--2--2--2-p1--0--x--|-------6-----6--6-----6--|----6--6--6--6--6--6--x--|
D|-2-----2-----2--2--x--2--|----2--2--2--2-----0--x--|-6-----6-----6--6-----6--|----6--6--6--6--6--6--x--| x4
A|-2-----2-----2--2--x--2--|----2--2--2--2-----0--x--|-7-----7-----7--7-----7--|----7--7--7--7--7--7--x--|
E|-0-----0-----0--0--x--0--|----0--0--0--0-----0--x--|-5-----5-----5--5-----5--|----5--5--5--5--5--5--x--|


[2:27-END]

  Allow this chord to sustain until the song ends
e|-0-----------------------|
B|-0-----------------------|
G|-1-----------------------|
D|-2-----------------------|
A|-2-----------------------|
E|-0-----------------------|


************************************

KEY:

| /    slide up
| \    slide down
| h    hammer-on
| p    pull-off
| ~    vibrato
| x    Muted note
| PM   Palm muted
| +    Harmonic
| b    Bend

************************************
Suggest correction
Give kudos to tab author, rate the tab!
1 2 3 4 5
comments
print report bad tab
guest
You may want to rate the tab now too:
select rating
Wanna post a correction for this tab? Suggest correction