Oops, an error
Loading. Please wait.

Serial Killer Status bass

1,154 views 3 this week
no commentswrite comment
1 2 3 4 5
2 more votes to show rating
add to favorites
×
Save as Personal and add changes to this tab that will be seen only by you. Learn more ›
×
You can save this tab as Personal to edit and correct it or add notes. All changes will be seen only by you. Learn more »
launch autoscroll
font size
0
reset
guitar tuner
edit
Autoscroll
slow
fast
+/-
esc
set tempo
stop
Author
Difficulty
-------------------------------------------------------------------------------
                             SERIAL KILLER STATUS - Algernon Cadwallader
-------------------------------------------------------------------------------
Tabbed by: designatedjake
E-mail: jacob.ryan.morrison@gmail.com

This is my first tab so I hope it's not too messy. Have fun!

Tuning: EADG
 *It sounds like the song was recorded with a five string because there is a frequent 
super low B. This will work just fine if you just want to play the song though.


INTRO (ring out notes)                                                  You old dog
G|-------------------------------------------------- |----------------------|
D|---------------------9-----------------------9----|-----------------------|
A|--------7-------------7---------9-7----------7-----|-14---11--7-----------|
E|--7------------7-----------7-----------7---------|------------------------|


INTERLUDE (ring out)
G|----------------------------------------------------------------------------|
D|----------------------------------------------------------------------------|
A|-----------9--7-------7-6----11---9-------------7---------------------------|
E|--7-----7--------------------------------7----------------------------------|

You can just get off the bus now (16th notes)
G|-------------------------------------------------------------------------------|
D|-------------------------------------------------------------------------------|
A|--------------4(x16)----------------------7(x16)-------------------------------|
E|--7(x16)-2(x16)------4(x16)----7(x16)-2(x16)------4(x16)-----------------------|

I think you’ll agree
G|-----------------------------------------------------------------------------|
D|-----------------------------------------------------------------------------|
A|-----------9(x16)--7(x28)----Rest--------------------------------------------|
E|--7(x16)---------------------------------------------------------------------|

This is how you achieve
G|-----------------------------------------------------------------------------|
D|---------------------9-------------------------------------------------------|
A|--14(x8)-11(x8)-7(x8)-------------7(x8)--------------------------------------|
E|-----------------------7---4(x8)---------------------------------------------|

G|-----------------------------------------------------------------------------|
D|-----------------------------------------------------------------------------|
A|--14(x8)-11(x8)-7(x8)----------7(x8)-----------------------------------------|
E|---------------------7-7-4(x8)-----------------------------------------------|

16th notes
G|-----------------------------------------------------------------------------|
D|-----------------------------------------------------------------------------|
A|--14(x8)-11(x8)-7(x8)-------------7(x31)-9-----------------------------------|
E|---------------------7(x8)-4(x8)---------------------------------------------|

G|-------------------------------------------------------------------------------|
D|-------------------------------------------------------------------------------|
A|-------------7(x8)--------------7(x8)-------------7(x8)------------------------|
E|---7(x8)-4(x8)---------7(x8)-4(x8)-------7(x8)-4(x8)---------------------------|


G|----------------------------------------|----------------------------------|
D|----------------------------------------|----------------------------------|
A|--------------------77777777 77777777--|-14--11--7-------------------------|
E|--77777777-44444444--------------------|-----------------------------------|

| /  slide up
| \  slide down
| h  hammer-on
| p  pull-off
| ~  vibrato
| +  harmonic
| x  Mute note
===============================================================================

            
            
Suggest correction
Creating personal tab
Creating personal tab
You can edit any tab online and save it as your Personal.

You can edit, replace or remove any tab part or add personal notes – all changes will be seen only by you.

Personal tabs can be accessed anytime from any device, even offline.
Learn more »
Give kudos to tab author, rate the tab!
1 2 3 4 5
comments
print report bad tab
guest
You may want to rate the tab now too:
select rating
Wanna post a correction for this tab? Suggest correction