Oops, an error
Loading. Please wait.

Some Kind Of Cadwallader bass

version 1
version 1

Whole song

Interactive

1,132 views 3 this week
no commentswrite comment
1 2 3 4 5
1 last vote to show rating
add to favorites
×
Save as Personal and add changes to this tab that will be seen only by you. Learn more ›
×
You can save this tab as Personal to edit and correct it or add notes. All changes will be seen only by you. Learn more »
launch autoscroll
font size
0
reset
guitar tuner
edit
Autoscroll
slow
fast
+/-
esc
set tempo
stop
Author
-------------------------------------------------------------------------------
                              SOME KIND OF CADWALLADER - Algernon Cadwallader
-------------------------------------------------------------------------------
Tabbed by: Joe Owens
E-mail: joeowens994@hotmail.com
Video: http://www.youtube.com/watch?v=Vqj-J78k0Xc
Tuning: Standard (EADG)

I checked the GP version that's on here and it lacks bass. After listening 
to the song and checking with some live videos I've figured it all out. Most
of the 1/4 notes are played staccato (short and fast).

Intro:
G|----------------|
D|----------------|
A|-2---2---2---2--|
E|----------------|


Verse:
G|----------------|----------------|----------------|----------------|
D|----------------|----------------|-4---4---4---4--|-4---4---4---4--|
A|-2---2---2---2--|-2---2---2---2--|----------------|----------------|
E|----------------|----------------|----------------|----------------|

G|----------------|----------------|----------------|----------------|
D|----------------|----------------|----------------|----------------|
A|-4---4---4---4--|-4---4---4---4--|-0---0---0---0--|-0---0---0---0--|
E|----------------|----------------|----------------|----------------|

G|----------------|----------------|----------------|----------------|
D|-2---2---2---2--|-2---2---2---2--|----------------|----------------|
A|----------------|----------------|-2-2-2-2-2-2-2-2|-2-2-2-2-2-2-2-2|
E|----------------|----------------|----------------|----------------|

G|----------------|----------------|----------------|----------------|
D|-4---4---4---4--|-4---4---4---4--|----------------|----------------|
A|----------------|----------------|-0-0-0-0-0-0-0-0|-0-0-0-0-0-0-0-0|
E|----------------|----------------|----------------|----------------|

G|----------------|----------------|----------------|----------------|
D|----------------|----------------|----------------|----------------|
A|-4---4---4---4--|-4---4---4---4--|----------------|----------------|
E|----------------|----------------|----------------|----------------|


Chorus:
G|----------------|----------------|----------------|----------------|
D|----------------|----------------|----------------|----------------|
A|-2-2-2-2-2-2-2-2|-2-2-2-2-2-2-2-2|----------------|----------------|
E|----------------|----------------|-2-2-2-2-4-4-4-4|-4-4-4-4-4-4-4-4|

G|----------------|----------------|----------------|----------------|
D|----------------|----------------|----------------|----------------|
A|-2-2-2-2-2-2-2-2|-2-2-2-2-2-2-2-2|----------------|----------------|
E|----------------|----------------|-2-2-2-2-4-4-4-4|-4-4-4-4-4-4-4-4|

G|----------------|----------------|
D|----------------|----------------|
A|-0---0---0---0--|-0---0---0---0--|
E|----------------|----------------|

Verse: (exactly the same as the first, writing it out again)
G|----------------|----------------|----------------|----------------|
D|----------------|----------------|-4---4---4---4--|-4---4---4---4--|
A|-2---2---2---2--|-2---2---2---2--|----------------|----------------|
E|----------------|----------------|----------------|----------------|

G|----------------|----------------|----------------|----------------|
D|----------------|----------------|----------------|----------------|
A|-4---4---4---4--|-4---4---4---4--|-0---0---0---0--|-0---0---0---0--|
E|----------------|----------------|----------------|----------------|

G|----------------|----------------|----------------|----------------|
D|-2---2---2---2--|-2---2---2---2--|----------------|----------------|
A|----------------|----------------|-2-2-2-2-2-2-2-2|-2-2-2-2-2-2-2-2|
E|----------------|----------------|----------------|----------------|

G|----------------|----------------|----------------|----------------|
D|-4---4---4---4--|-4---4---4---4--|----------------|----------------|
A|----------------|----------------|-0-0-0-0-0-0-0-0|-0-0-0-0-0-0-0-0|
E|----------------|----------------|----------------|----------------|

G|----------------|----------------|----------------|----------------|
D|----------------|----------------|----------------|----------------|
A|-4---4---4---4--|-4---4---4---4--|----------------|----------------|
E|----------------|----------------|----------------|----------------|

Chorus: (longer than first)
G|----------------|----------------|----------------|----------------|
D|----------------|----------------|----------------|----------------|
A|-2-2-2-2-2-2-2-2|-2-2-2-2-2-2-2-2|----------------|----------------|
E|----------------|----------------|-2-2-2-2-4-4-4-4|-4-4-4-4-4-4-4-4|

G|----------------|----------------|----------------|----------------|
D|----------------|----------------|----------------|----------------|
A|-2-2-2-2-2-2-2-2|-2-2-2-2-2-2-2-2|----------------|----------------|
E|----------------|----------------|-2-2-2-2-4-4-4-4|-4-4-4-4-4-4-4-4|

G|----------------|----------------|----------------|----------------|
D|----------------|----------------|----------------|----------------|
A|-2-2-2-2-2-2-2-2|-2-2-2-2-2-2-2-2|----------------|----------------|
E|----------------|----------------|-2-2-2-2-4-4-4-4|-4-4-4-4-4-4-4-4|

G|----------------|----------------|----------------|----------------|
D|----------------|----------------|----------------|----------------|
A|-2-2-2-2-2-2-2-2|-2-2-2-2-2-2-2-2|----------------|----------------|
E|----------------|----------------|-2-2-2-2-4-4-4-4|-4-4-4-4-4-4-4-4|

G|----------------|----------------|
D|----------------|----------------|
A|-0---0---0---0--|-0---0---0---0--|
E|----------------|----------------|

Outro/Harmonica Part:
G|----------------|----------------|----------------|----------------|
D|----------------|----------------|----------------|----------------|
A|-2-2-2-2-2-2-2-2|-2-2-2-2-2-2-2-2|-2-2-2-2-2-2-2-2|-2-2-2-2-2-2-2-2|
E|----------------|----------------|----------------|----------------|

G|----------------|----------------|----------------|----------------|
D|-4-4-4-4-4-4-4-4|-4-4-4-4-4-4-4-4|-4-4-4-4-4-4-4-4|-4-4-4-4-4-4-4-4|
A|----------------|----------------|----------------|----------------|
E|----------------|----------------|----------------|----------------|

G|----------------|----------------|----------------|----------------|
D|----------------|----------------|----------------|----------------|
A|-4-4-4-4-4-4-4-4|-4-4-4-4-4-4-4-4|-4-4-4-4-4-4-4-4|-4-4-4-4-4-4-4-4|
E|----------------|----------------|----------------|----------------|

G|----------------|
D|----------------|
A|-0--------------|
E|----------------|

Let that last note ring and you're done.

            
            
Suggest correction
Creating personal tab
Creating personal tab
You can edit any tab online and save it as your Personal.

You can edit, replace or remove any tab part or add personal notes – all changes will be seen only by you.

Personal tabs can be accessed anytime from any device, even offline.
Learn more »
Give kudos to tab author, rate the tab!
1 2 3 4 5
comments
print report bad tab
guest
You may want to rate the tab now too:
select rating
Wanna post a correction for this tab? Suggest correction