Oops, an error
Loading. Please wait.

Spit Fountain intro tab

version 1
version 1

Intro

Whole song

Interactive

7,521 views 3 this week
2 commentsread comments
1 2 3 4 5
3 more votes to show rating
add to favorites
×
Save as Personal and add changes to this tab that will be seen only by you. Learn more ›
×
You can save this tab as Personal to edit and correct it or add notes. All changes will be seen only by you. Learn more »
launch autoscroll
font size
0
reset
how to read this tab
guitar tuner
edit
Autoscroll
slow
fast
+/-
esc
set tempo
stop
Author
-------------------------------------------------------------------------------
                         SPIT FOUNTAIN - Algernon Cadwallader
-------------------------------------------------------------------------------

Tuning: D A E A C# E

0:00-0:18ish

e |---------------------------------------------0------------------|
C#|---3---------------------3--------------------------------------|
A |-----4---------------0-----4------------------------------------|
E |-------5---------0h2---------5---------0h2/5--------------------|
A |-------------0h2-------------------0h2--------------------------|
D |-0-------2h4-----------0-------2h4------------------------------| X3

Sounds right to me. If I can figure out the rest of the song, I'll post it, too.

            
            
Suggest correction
Creating personal tab
Creating personal tab
You can edit any tab online and save it as your Personal.

You can edit, replace or remove any tab part or add personal notes – all changes will be seen only by you.

Personal tabs can be accessed anytime from any device, even offline.
Learn more »
Give kudos to tab author, rate the tab!
1 2 3 4 5
comments
print report bad tab
2 comments total.
+1 reply
danthebear 10 Feb 16, 2013 09:36 AM

this can also be played in drop D tuning. the given tuning puts a bit too much tension on the strings

e |--0-----------------------0------------------0------------------|
B |----2-----------------------2-----------------------------------|
G |------2--------------2--------2---------------------------------|
D |-----------------2h4-------------------2h4/7--------------------|
A |-------------0h2-------------------0h2--------------------------|
D |-0-------2h4-----------0-------2h4------------------------------| X3

0 reply
kylestephens123 10 Aug 06, 2014 07:55 PM

danthebear, Algernon actually plays in DAEAC#e...

guest
You may want to rate the tab now too:
select rating
Wanna post a correction for this tab? Suggest correction