Oops, an error
Loading. Please wait.

Spit Fountain tab

version 2
version 2

Whole song

Interactive

754 views 3 this week
no commentswrite comment
1 2 3 4 5
2 more votes to show rating
add to favorites
×
Save as Personal and add changes to this tab that will be seen only by you. Learn more ›
×
You can save this tab as Personal to edit and correct it or add notes. All changes will be seen only by you. Learn more »
launch autoscroll
font size
0
reset
how to read this tab
guitar tuner
edit
Autoscroll
slow
fast
+/-
esc
set tempo
stop
Author
Difficulty
Spit Fountain, by Algernon Cadwallader
tabbed by Jacob Ranjbaran
Tuning - D A E A C# E

  
E |----0--------|----------------|----0--------|---------------0-|
C#|-------0-----|----------------|-------0-----|-----------------|
A |----------0--|-------------0--|----------0--|-------------5---|
E |-------------|---------0-4----|-------------|---------0-4-----|
A |-------------|-----0-2--------|-------------|-----0-2---------|
D |-0-----------|-2-4------------|-0-----------|-2-4-------------|

E |----0--------|----------------|----0--------|---------------0-|
C#|-------0-----|----------------|-------0-----|-----------------|
A |----------0--|-------------0--|----------0--|-------------5---|
E |-------------|---------0-4----|-------------|---------0-4-----|
A |-------------|-----0-2--------|-------------|-----0-2---------|
D |-0-----------|-2-4------------|-0-----------|-2-4-------------|
                                
E |----0--------|----------------|----0------x-----|------------------|
C#|-------0-----|----------------|-------0---x-----|------------------|
A |----------0--|-------------0--|-----------x-----|------------------|
E |-------------|---------0-4----|-----------x-----|-----------5-4-0--|
A |-------------|-----0-2--------|-----------x-----|---0-2-4-7--------|
D |-0-----------|-2-4------------|-0---------x-0-2-|-4----------------|
  
E |-----0-------4--5--|-(5)-------------------|
C#|---------0---3-(3)-|-(3)-0-3-5-3-0---------|
A |-------------4--5--|-(5)-----------0-5-7---|
E |-------------------|---------------------0-|
A |-0-----------------|-----------------------|
D |-------------------|-----------------------|

E |-----0-----------|-------4-5-4-0---|
C#|-----------------|-----3---------0-|
A |---------0-------|-2-4-------------|
E |-----------------|-----------------|
A |-----------------|-----------------|
D |-0---------------|-----------------|

E |-----0------------|-----------------12---|
C#|---------------/8-|-(8)-----8-10-12----8-|
A |---------4-5------|-----7-9--------------|
E |------------------|----------------------|
A |-0----------------|----------------------|
D |------------------|----------------------|

E |-----12---9-------|----------0-------|
C#|------8---8-------|----------8-------|
A |------------------|-------0--0-------|
E |------------------|---7-9----9-------|
A |------------------|-5----------------|
D |-0------------0---|------------------|

E |--------------9\-12-|-(12)-----------------|
C#|---------8-10-------|----------------5-3-0-|
A |-------0------------|----------0-4-5-------|
E |-----7--------------|----------------------|
A |-7-9----------------|----------------------|
D |--------------------|----------------------|

E |------9-----9---|-----10-----10-----|
C#|----8---8-------|-8------8------8---|
A |----0-----------|---0------0------0-|
E |----0-----------|-------------------|
A |----------------|-------------------|
D |-9--------9-----|-------------------|

                                (strum down strings)
                                          v  
E |----5-----5-----|-0-------------|------^0----------|----------------|
C#|------3-----3---|---3-----------|------^3----3---0-|--------5p3-----|
A |--------4-----4-|-----5-4-2--0--|------^4------4---|-----4------5-4-|
E |-0--------------|---------------|------^5----------|-2s5------------|
A |-0--------------|---------------|------------------|----------------|
D |----------------|---------------|-0----------------|----------------|

E |------5-----0---|---5-----0-------|---^0----------|----------------|
C#|----3---3-----3-|- ---3--- -3---3-|---^3----3---0-|--------5p3-----|
A |----4-----4-----|-------4-----4---|---^4------4---|-----4------5-4-|
E |----0-----------|-----------------|---^5----------|-2s5------------|
A |-0--------------|-0---------------|---------------|----------------|
D |----------------|-----------------|-0-------------|----------------|

E |-----0-----------|-----------------|
C#|---------0-------|-----------------|
A |-------------0---|-------------5---|
E |-----------------|---------0-4-----|
A |-0---------------|-----0-2---------|
D |-----------------|-2-4-------------|

E |-----0-------------|----------0---(0)------|
C#|---------0---------|----------0---(0)------|
A |-------------0-----|---------/5---/4-------|
E |-------------------|-----0-4-/5---(5)------|
A |-0-----------------|---0-------------------|
D |---------------0-2-|-4---------------------|

E |-(0)---0-----------|---------/5---/5---|-(5)---0-----------|-----------------|
C#|-(0)-------0-------|-3-3-3---/3---/3---|-(3)-------0-------|-----------------|
A |-(4)-----------0---|-4-5-4-------------|---------------0---|-----------------|
E |-(5)---------------|-------------------|-------------------|-----------------|
A |-------------------|-------------------|--0----------------|-----0---2-------|
D |-------------------|-------------------|-------------------|-2-4---------4---|

  (tapping here)
E |-12p0----------------|-----------------0-|
C#|------12p8------12p8-|-----------------0-|
A |-----------12p0------|-12p0-7h9-12p7p0-0-|
E |---------------------|-------------------|
A |---------------------|-------------------|
D |---------------------|-------------------|

E |-12p0------------------|-----------0--------|
C#|------12p8-------------|-----------0--------|
A |-----------12p0--------|---12p7p0--0--------|
E |----------------12p0-4-|h5------------------|
A |-----------------------|--------------------|
D |-----------------------|--------------------|

E |-12p0----------------|-----------------0-|
C#|------12p8------12p8-|-----------------0-|
A |-----------12p0------|-12p0-7h9-12p7p0-0-|
E |---------------------|-------------------|
A |---------------------|-------------------|
D |---------------------|-------------------|

E |-12p0------------------|-----------0--------|
C#|------12p8-------------|-----------0--------|
A |-----------12p0--------|---12p7p0--0--------|
E |----------------12p0-4-|h5------------------|
A |-----------------------|--------------------|
D |-----------------------|--------------------|

E |--------------|-----------------------|-------------|-------------------|
C#|--------------|-----------------------|-------------|---------------7h8-|
A |-7--7--7-7--7-|-(7)-7-7-7-9-7-(7)-(7)-|-x--7--7-7-7-|-(7)---------7-----|
E |-9--9--9-9--9-|-(9)-9-9-9-9-9-10---9--|-x--9--9-9-9-|-(9)-0-5-7-9-------|
A |-0--0--0-0--0-|-(0)-0-0-0-0-0--0---0--|-x--0--0-0-0-|-(0)---------------|
D |--------------|-----------------------|-------------|-------------------|

E |--------------|-----------------------|---------0-0-0-0---|
C#|--------------|-----------------------|---------8-8-8-8---|
A |-7--7--7-7--7-|-(7)-7-7-7-9-7-(7)-(7)-|---------0-0-0-0---|
E |-9--9--9-9--9-|-(9)-9-9-9-9-9-10---9--|-----7h9-9-9-9-0---|
A |-0--0--0-0--0-|-(0)-0-0-0-0-0--0---0--|-7h9---------------|
D |--------------|-----------------------|-0-----------------|

E |-----0-------4--5--|-(5)-------------------|
C#|---------0---3-(3)-|-(3)-0-3-5-3-0---------|
A |-------------4--5--|-(5)-----------0-5-7---|
E |-------------------|---------------------0-|
A |-0-----------------|-----------------------|
D |-------------------|-----------------------|

E |-----0-----------|-------4-5-4-0---|
C#|-----------------|-----3---------0-|
A |---------0-------|-2-4-------------|
E |-----------------|-----------------|
A |-----------------|-----------------|
D |-0---------------|-----------------|

E |-----0------------|-----------------12---|
C#|---------------/8-|-(8)-----8-10-12----8-|
A |---------4-5------|-----7-9--------------|
E |------------------|----------------------|
A |-0----------------|----------------------|
D |------------------|----------------------|

E |-----12---9-------|----------0-------|
C#|------8---8-------|----------8-------|
A |------------------|-------0--0-------|
E |------------------|---7-9----9-------|
A |------------------|-5----------------|
D |-0------------0---|------------------|

E |--------------9\-12-|-(12)-----------------|
C#|---------8-10-------|----------------5-3-0-|
A |-------0------------|----------0-4-5-------|
E |-----7--------------|----------------------|
A |-7-9----------------|----------------------|
D |--------------------|----------------------|

E |------9-----9---|-----10-----10----------|
C#|----8---8-------|-8------8------8--------|
A |----0-----------|---0------0------0------|
E |----0-----------|------------------------|
A |----------------|------------------------|
D |-9--------9-----|------------------------|

                                (strum down strings)
                                         v  
E |----5-----5-----|-0-------------|------^0----------|----------------|
C#|------3-----3---|---3-----------|------^3----3---0-|--------5p3-----|
A |--------4-----4-|-----5-4-2--0--|------^4------4---|-----4------5-4-|
E |-0--------------|---------------|------------------|-2s5------------|
A |-0--------------|---------------|------------------|----------------|
D |----------------|---------------|-0----------------|----------------|

E |------5-----0---|---5-----0-------|------^0----------|----------------|
C#|----3---3-----3-|- ---3--- -3---3-|------^3----3---0-|--------5p3-----|
A |----4-----4-----|-------4-----4---|------^4------4---|-----4------5-4-|
E |----0-----------|-----------------|------------------|-2s5------------|
A |-0--------------|-0---------------|------------------|----------------|
D |----------------|-----------------|-0----------------|----------------|

E |-----0-----------|-----------------|
C#|---------0-------|-----------------|
A |-------------0---|-------------0---|
E |-----------------|---------0-4-----|
A |-0---------------|-----0-2---------|
D |-----------------|-2-4-------------|

E |-----0---------|---------------0-|
C#|---------0-----|-----------------|
A |-------------0-|-------------0---|
E |---------------|---------0-4-----|
A |-0-------------|-----0-2---------|
D |---------------|-2-4-------------|

E |-------0---------9-|-(9)---9-9--9----9---|----0-----------|-----------------|
C#|-----------0-----8-|-(8)---8-8--8----8---|--------0-------|---------0h7-----|
A |---------------0-7-|-(7)---7-7--7----7---|------------0---|-----------------|
E |-------------------|---------------------|----------------|-----------------|
A |--0----------------|---------------------|-0--------------|-----0-----------|
D |-------------------|---------------------|----------------|-2-4-------------|

  (tapping here)
E |-12p0----------------|-----------------0-|
C#|------12p8------12p8-|-----------------0-|
A |-----------12p0------|-12p0-7h9-12p7p0-0-|
E |---------------------|-------------------|
A |---------------------|-------------------|
D |---------------------|-------------------|

E |-12p0------------------|-----------0--------|
C#|------12p8-------------|-----------0--------|
A |-----------12p0--------|---12p7p0--0--------|
E |----------------12p0-4-|h5------------------|
A |-----------------------|--------------------|
D |-----------------------|--------------------|

E |-12p0----------------|-----------------0-|
C#|------12p8------12p8-|-----------------0-|
A |-----------12p0------|-12p0-7h9-12p7p0-0-|
E |---------------------|-------------------|
A |---------------------|-------------------|
D |---------------------|-------------------|

                                                     (some time)
E |-12p0------------------|-----------0--------|-0--------------------------------------0-|
C#|------12p8-------------|-----------0--------|-8--------------------------------------8-|
A |-----------12p0--------|---12p7p0--0--------|-7--------------------------------------7-|
E |----------------12p0-4-|h5------------------|-9--------------------------------------9-|
A |-----------------------|--------------------|------------------------------------------|
D |-----------------------|--------------------|------------------------------------------|


***********************************
| /   Slide up
| \   Slide down
| h   Hummer-on
| p   Pull-off
| x   Dead note
|(n)  Ghost note 
***********************************

            
            
Suggest correction
Creating personal tab
Creating personal tab
You can edit any tab online and save it as your Personal.

You can edit, replace or remove any tab part or add personal notes – all changes will be seen only by you.

Personal tabs can be accessed anytime from any device, even offline.
Learn more »
Give kudos to tab author, rate the tab!
1 2 3 4 5
comments
print report bad tab
guest
You may want to rate the tab now too:
select rating
Wanna post a correction for this tab? Suggest correction