Oops, an error
Loading. Please wait.

Blue Turk Bass Tab

version 2
version 2

Whole song

  • Converted from unplayable ASCII to Guitar Pro 6 "g... Show more
25 views 1 this week
no commentswrite comment
1 2 3 4 5
2 more votes to show rating
add to favorites
launch autoscroll
font size
0
reset
guitar tuner
Autoscroll
slow
fast
+/-
esc
set tempo
stop
Help us to improve Ultimate-Guitar.com Take our survey!
×
Author
About this tab version
Converted from unplayable ASCII to Guitar Pro 6 "gpx", auto-corrected bars and timing. Exported to TXT, GP5, PDF. now playable with Tab Apps and Online players. Was this info helpful? Yes No
Title: Blue Turk
SubTitle: Bass Tab
Artist: Alice Cooper
Tempo = 120
Track 1


G|----------------------------------------------------|
D|----------------------------------------------------|
A|--0h----4-----5--5-----4--4-----3--3-----2-----0L---|
E|----------------------------------------------------|


G|----------------------------------------------------|
D|----------------------------------------------------|
A|--0h-4-----5--5-----------0h----4-----5--5-----4----|
E|----------------------------------------------------|


G|----------------------------------------------------|
D|----------------------------------------------------|
A|--4-----3--3-----2-----0h----4-----5-----------0L---|
E|----------------------------------------------------|


G|----------------------------------------------------|
D|----------------------------------------------------|
A|--0--3-----0-----5--5-----0-----3-----2-----0-------|
E|----------------------------------------------------|


G|----------------------------------------------------|
D|----------------------------------------------------|
A|--3-----0-----5--5-----0-----3-----2-----------5L---|
E|----------------------------------------------------|


G|----------------------------------------------------|
D|-----3--------------5-----------------7-----10------|
A|--5-----5s----7-----------7-----8--8----------------|
E|----------------------------------------------------|


G|-----------------5--5-------------------------------|
D|--------------------------7-----------3-------------|
A|--7-----5--5--------------------5--------5s----7L---|
E|----------------------------------------------------|


G|----------------------------------------------------|
D|-----5--------------8-------------------------------|
A|--7-----7-----8--8--------5-----5-----8-----8-------|
E|----------------------------------------------------|


G|-----------------------------------19----19----18L--|
D|----------------------------------------------------|
A|--8-----8--8--8--8--8--8--8--8s---------------------|
E|----------------------------------------------------|


G|--18-18----17----17----16----16----19----19----18L--|
D|----------------------------------------------------|
A|----------------------------------------------------|
E|----------------------------------------------------|


G|--18-18----17----17----16----16---------------------|
D|--------------------------------------------3-------|
A|-----------------------------------4-----5-----5L---|
E|----------------------------------------------------|


G|----------------------------------------------------|
D|--------5-----------7-------------------------------|
A|--5s-7-----7s----8-----8-----7-----10----7-----5----|
E|----------------------------------------------------|


G|----------------------------------------------------|
D|--3-----------5-----------7-------------------------|
A|-----5s----7-----7s----8-----8-----7-----10----7L---|
E|----------------------------------------------------|


G|----------------------------------------------------|
D|--------3-----------5-----------7-------------------|
A|--7--5-----5s----7-----7s----8-----8-----7-----10L--|
E|----------------------------------------------------|


G|----------------------------------------------------|
D|--------------3-------------------------------------|
A|--10-7-----5-----5-----5-----3----------------------|
E|-----------------------------------5-----3h----5L---|


G|----------------------------------------------------|
D|--------------------------3-----------5-------------|
A|-----2-----3-----4-----5-----5s----7-----7s----8----|
E|--5-------------------------------------------------|


G|----------------------------------------------------|
D|--7-----------------------------3-----------5-------|
A|-----8-----7-----10----7-----5-----5s----7-----7L---|
E|----------------------------------------------------|


G|----------------------------------------------------|
D|--------7-------------------------------------------|
A|--7s-8-----8-----10----7-----5-----3-----3-----5----|
E|--------------------------------------5-------------|


G|----------------------------------------------------|
D|--2-----3-----2-------------------------------------|
A|--------------------5-----3-----------------2-------|
E|-----------------------------5-----3-----5----------|


G|----------------------------------------------------|
D|--------------------------3--------------5----------|
A|--3-----4-----------5--5-----5s----7--7-----7s------|
E|----------------------------------------------------|


G|----------------------------------------------------|
D|--------7-----------------------------------3-------|
A|--8--8-----8-----7--7-----10----7-----5--5-----5L---|
E|----------------------------------------------------|


G|----------------------------------------------------|
D|-----------23-------------3-----2-----3-------------|
A|--5--5--5-----5-----5--5--------------------5--5----|
E|----------------------------------------------------|


G|-----------2-----3-----3-----2--------7-----5-------|
D|--2-----3-------------------------------------------|
A|--------------------------3-----5-------------------|
E|----------------------------------------------------|


G|--3-----2-------------------------------------------|
D|-----------5-----3-----2----------------------------|
A|--------------------------5-----3-------------------|
E|--------------------------------------5-----3-------|


G|----------------------------------------------------|
D|----------------------------------------------------|
A|-----2-----3-----4-----5--5-----5-----5--5-----5L---|
E|--5-------------------------------------------------|


G|----------------------------------------------------|
D|----------------------------------------------------|
A|--5--5--5-----5--5--5--5--5--5--5--5--5--5--5--5----|
E|----------------------------------------------------|


G|-----19-19-18-18-17-17-16---|--16-15-15-14-14-13-13-12---|
D|----------------------------|----------------------------|
A|--5-------------------------|----------------------------|
E|----------------------------|----------------------------|


G|----------------------------------------------------|
D|----------------------------------------------------|
A|--0h----4-----5--5-----4--4-----3--3-----2-----0L---|
E|----------------------------------------------------|


G|--------------------19----19----18----18----17------|
D|----------------------------------------------------|
A|--0h-4-----5--5-------------------------------------|
E|----------------------------------------------------|


G|--17-16-16-15-15-14-14-13---|--13-12-12-11-11-10-10-9----|
D|----------------------------|----------------------------|
A|----------------------------|----------------------------|
E|----------------------------|----------------------------|


G|--9--8--8--7--7--6--6--5----|--5--4--4--3--3--2--2--1----|
D|----------------------------|----------------------------|
A|----------------------------|----------------------------|
E|----------------------------|----------------------------|


G|--1--0--0-------------------|----------------------------|
D|-----------4--4--3--3--2----|--2--1--1--0--0-------------|
A|----------------------------|-----------------4--4--3----|
E|----------------------------|----------------------------|


G|-----------------------3-----------3-----3----------|--19-19-19-19---|
D|----------------------------------------------------|-----------19---|
A|--3-----2-----2-----1-----1-----11----1-----1s------|----------------|
E|----------------------------------------------------|----------------|


G|----------------------------------------------------|
D|----------------------------------------------------|
A|--0h----4-----5--5-----4--4-----3--3-----2-----0L---|
E|----------------------------------------------------|


G|----------------------------------------------------|
D|----------------------------------------------------|
A|--0h-2-----5--5-----------0h----4-----5--5-----4----|
E|----------------------------------------------------|


G|----------------------------------------------------|
D|----------------------------------------------------|
A|--4-----3--3-----2-----0h----2-----5-----------0L---|
E|----------------------------------------------------|


G|----------------------------------------------------|
D|----------------------------------------------------|
A|--0h-3-----5--5-----4--4-----3--3-----2-----0h------|
E|----------------------------------------------------|


G|----------------------------------------------------|
D|----------------------------------------------------|
A|--3-----5--5-----------0h----3-----5--5-----4--4L---|
E|----------------------------------------------------|


G|----------------------------------------------------||
D|----------------------------------------------------||
A|--4--3--3-----2-----0h----3-----5-------------------||
E|----------------------------------------------------||

Legend:
L - tied note
h - hammer on/pull off
s - slide
Suggest correction
Give kudos to tab author, rate the tab!
1 2 3 4 5
comments
print report bad tab
guest
You may want to rate the tab now too:
select rating
Wanna post a correction for this tab? Suggest correction