Oops, an error
Loading. Please wait.

Feed My Frankenstein bass

version 3
version 3

Whole song

Interactive

222 views 1 this week
1 commentread comment
1 2 3 4 5
2 more votes to show rating
add to favorites
×
Save as Personal and add changes to this tab that will be seen only by you. Learn more ›
×
You can save this tab as Personal to edit and correct it or add notes. All changes will be seen only by you. Learn more »
launch autoscroll
font size
0
reset
guitar tuner
edit
Autoscroll
slow
fast
+/-
esc
set tempo
stop
Author
-----------------------------------------------------------------------------
                             FEED MY FRANKENSTEIN - Alice Cooper
-----------------------------------------------------------------------------
by MetalPizza74
Standard Tuning

Hey everyone! I'd just like to clear something up: I realize that 
the original song is in dropped tuning, but if you'd like to jam 
without tuning down (trust me, it still sounds great), this tab 
is what you're looking for. If you'd rather tune down, I recommend 
version 2.

Note: I've included counting at some places, 
ignore it if it doesn't do anything for you.
If you have any questions or suggestions, shoot me a comment!

Intro:
I know this is right, as the bassist plays it like this in the video.
(sing)          (play)
G|-F-----F--K--T--------------------------2-0--2-----------------------------|
D|--E--M--R--E--E--0000-0-3-5-3-0--0-0-3----------0-3-5-3-0--00003-03-03-5-3-|
A|---E--Y--A--N--I-----------------------------------------------------------|
E|----D-----N--S---N---------------------------------------------------------|

-----------------------2-0--2----------------------------|
-----0-3-5-3-0--0-0-3----------0-3-5-3-0--00003-03-03-5-3|
---------------------------------------------------------|
---------------------------------------------------------|

Verse:
G|--------------------------|-------------------------|
D|--0--0-------0--0-0-------|-0--0-------0--0-0-------|
A|--------------------------|-------------------------| x5
E|--------------------------|-------------------------|
    1  +  2  + a3 e +  4  +   1  +  2  + a3 e +  4  +

Pre-Chorus:
G|------------------------|----------------------|-------------------------|
D|------------------------|----------------------|-------------------------|
A|-0--0--3---0--0--3--0-3-|0--0--3--0------------|0--0--3---0--0-3p0h3-----|
E|------------------------|-------------3--3--4--|-------------------------|
   1  +  2 + a3 +  4  + a  1  +  2  +  tri pl et  1  +  2 + a3 e + a 4  +

-------------------------|
-------------------------|
0----1----2----3---4--5--|
-------------------------|
1  + a 2  +  3 e + 4  +

Chorus:
G|---------------------2-0--2-------------------------------|
D|-0-0-3-5-3-0--0-0-3----------0-0-3-5-3-0--00003-03-03-5-3-|
A|----------------------------------------------------------| x2
E|----------------------------------------------------------|

Solo Section:
G|--------------------------|-------------------------|
D|--0--0-------0--0-0-------|-0--0-------0--0-0-------|
A|--------------------------|-------------------------| x4
E|--------------------------|-------------------------|
  (Same rhythm as verse)

G|--------------------------|----------------------|---------------------|
D|--------------------------|----------------------|---------------------|
A|--------------------------|----------------------|---------------------|
E|-3--3--6---3--3-6p3h6-3-6-|3--3--6--3---1--1--2--|3--3--6---3--3-6p3h6-|
  (Same rhythm as pre-chorus)

-------------------------|
-------------------------|
-------------------------|
3----4----5----6---7--8--|

G|--------------------------------------------------------P-----|
D|---------------------------------------------------H--A--S-H--|
A|--------8---------------10-8--10---------8----------E-----Y-O-|
E|-8-8-11---11-8--8-8-11------------8-8-11---11-8\----'S-----C--|
  (same rhythm as chorus)

------------------------------------------------------------------|
------------------------------------------------------------------|
--------8---------------10-8--10---------8------------------1/----|
-8-8-11---11-8--8-8-11------------8-8-11---11-8-------------------|
                                                   (slide up the A string)
Outro:
G|-------------------------------------------------------------------|
D|-00003-03-3-------00003-03-3-------00003-03-3--------------3---0-0-|
A|------------2-3-4------------2-3-4------------2-3-4----------------|
E|-------------------------------------------------------------------|

************************************

| /   slide up
| \   slide down
| h   hammer-on
| p   pull-off
| ~   vibrato
| +   harmonic
| x   Mute note
| b   Bend
| pb  Pre-bend
| br  Bend release
| pbr Pre-bend release
| brb Bend release bend

************************************
Suggest correction
Creating personal tab
Creating personal tab
You can edit any tab online and save it as your Personal.

You can edit, replace or remove any tab part or add personal notes – all changes will be seen only by you.

Personal tabs can be accessed anytime from any device, even offline.
Learn more »
Give kudos to tab author, rate the tab!
1 2 3 4 5
comments
print report bad tab
1 comment total.
0 reply
kellynickels 3,017 Mar 25, 2013 06:11 AM

90% Wrong! 1st of all: it's not standard. it's Full step down. So verse D it's low D: 0 on string E...

guest
You may want to rate the tab now too:
select rating
Wanna post a correction for this tab? Suggest correction