Oops, an error
Loading. Please wait.

Generation Landslide bass

178 views 3 this week
no commentswrite comment
1 2 3 4 5
3 more votes to show rating
add to favorites
×
Save as Personal and add changes to this tab that will be seen only by you. Learn more ›
×
You can save this tab as Personal to edit and correct it or add notes. All changes will be seen only by you. Learn more »
launch autoscroll
font size
0
reset
guitar tuner
edit
Autoscroll
slow
fast
+/-
esc
set tempo
stop
Author
Tabbed by: 6METAL6BASSIST6
E-mail: petergriffinav@gmail.com

Tuning: EADG

G|--------|
D|3---/---|
A|--------|
E|--------|

G|10--12-12-10--12-12-10--12-12-10--12-12-9---12-12-9---12-12-9---12-12-9---12-12-|
D|--------------------------------------------------------------------------------|
A|--------------------------------------------------------------------------------|
E|--------------------------------------------------------------------------------|

G|----12-12-----12-12-----12-12-----12-12-----12-12-----12-12-----12-12-----9---|
D|13--------13--------13--------13--------12--------12--------12--------12------|
A|------------------------------------------------------------------------------|
E|------------------------------------------------------------------------------|

G|10--12-12-10--12-12-10--12-12-10--12-12-9---12-12-9---12-12-9---12-12-9---12-12-|
D|--------------------------------------------------------------------------------|
A|--------------------------------------------------------------------------------|
E|--------------------------------------------------------------------------------|

G|----12-12-----12-12-----12-12-----------------------------------|
D|10--------10--------10--------10--10----------------------------|
A|----------------------------------------------------------------|
E|----------------------------------------3---1-------------------|

G|--------------------------------------------------------|
D|--------------------------------------------------------|
A|--------------------------------------------------------|
E|--------------------------------------------------------|

G|----------------------------------------------------------------|
D|----------------------------------------------------------------| x2
A|----------------------------------------------------------------|
E|3---3---3-----------------------3---3---3-----------------------|

0:31

G|----------------------------------------------------------------|
D|----------------------------------------------------------------| x10
A|----------------------------------------------------------------|
E|3---3---------------------------3---3---------------------------|

G|----------------------------------------------------------------|
D|----------------------------------------------------------------|
A|----------------------------------------------------------------|
E|3---3---------------------------3-------------------------------|

G|----------------------------------------------------------------|
D|----------------------------------------------------------------|
A|----------------------------------------------------------------|
E|3---3---------------------------3---3-----------3---1-----------|

G|----------------------------------------------------------------|
D|----------------------------------------------------------------|
A|----------------------------------------------------------------|
E|----------------------------------------------------------------|

1:31

G|----------------------------------------------------------------|
D|----------------------------------------------------------------|
A|----------------------------------------------------------------|
E|3---------------------------------------------------------------|

G|----------------------------------------------------------------|
D|----------------------------------------------------------------|
A|------------------------------------------------3---------------|
E|3---------------------------------------------------------------|

G|----------------------------------------------------------------|
D|----------------------------------------------------------------|
A|----------------------------------------------------------------|
E|3---------------------------------------------------------------|

1:42

G|----------------------------------------------------------------|
D|--------5-----5-----5-------5-----------5-----5-----5-------5---| x4
A|------------------------5h7-----------------------------5h7-----|
E|3---3---------------------------3---3---------------------------|

G|----------------------------------------------------------------|
D|--------5-----------5-------5-----------5-----5-----5-------5---|
A|----------------5h7-----5h7-----------------------------5h7-----|
E|3---3---------------------------3---3---------------------------|

G|----------------------------------------------------------------|
D|--------5-----5-----5-------5-----------5-----5-----5-------5---| x2
A|------------------------5h7-----------------------------5h7-----|
E|3---3---------------------------3---3---------------------------|

G|----------------------------------------------------------------|
D|--------5-----5-----5-------5-----------5-----------5-------5---|
A|------------------------5h7---------------------5h7-----5h7-----|
E|3---3---------------------------3---3---------------------------|

G|----------------------------------------------------------------|
D|--------5-----5-----5-------5-----------5-----5-----5-------5---| x2
A|------------------------5h7-----------------------------5h7-----|
E|3---3---------------------------3---3---------------------------|

G|----------------------------------------------------------------|
D|--------5-----5-----5-------5-----------5-----5---5-5-------5---|
A|------------------------5h7-----------------------------5h7-----|
E|3---3---------------------------3---3---------------------------|

G|----------------------------------------------------------------|
D|--------5-----5-----5-------5-----------5---5-------------------|
A|------------------------5h7-------------------------------------|
E|3---3---------------------------3---3-----------3---1-----------|

G|----------------------------------------------------------------|
D|----------------------------------------------------------------|
A|----------------------------------------------------------------|
E|----------------------------------------------------------------|

2:40

G|----------------------------------------------------------------|
D|----------------------------------------------------------------|
A|----------------------------------------------------------------|
E|3---3---3-----------------------1---1---------------------------|

G|----------------------------------------------------------------|
D|----------------------------------------------------------------|
A|----------------------------------------------------------------|
E|3-3-3---------------------------1---1---1-----------------------|

G|----------------------------------------------------------------|
D|----------------------------------------------------------------|
A|----------------------------------------------------------------|
E|3---3---------------------------1-1-1---------------------------|

G|----------------------------------------------------------------|
D|----------------------------------------------------------------|
A|----------------------------------------------------------------|
E|3---3---3-----------------------3---3---------------------------|

G|----------------------------------------------------------------|
D|----------------------------------------------------------------|
A|----------------------------------------------------------------|
E|3-3-3---------------------------3---3---3-----------------------|

G|----------------------------------------------------------------|
D|----------------------------------------------------------------|
A|----------------------------------------------------------------|
E|3---3---------------------------3-3-3---------------------------|

G|----------------------------------------------------------------|
D|----------------------------------------------------------------|
A|----------------------------------------------------------------|
E|3---3---3-----------------------3---3---------------------------|

G|----------------------------------------------------------------|
D|----------------------------------------------------------------|
A|----------------------------------------------------------------|
E|3-3-3---------------------------3---3---3-----------------------|

G|----------------------------------------------------------------|
D|----------------------------------------------------------------|
A|----------------------------------------------------------------|
E|3---3---------------------------3-3-3---------------------------|

3:21

G|----------------------------------------------------------------|
D|----------------------------------------------------------------| x3
A|----------------------------------------------------------------|
E|3---------------------------------------------------------------|

3:34

G|----------------------------------------------------------------|
D|--------5-----5-----5-------5-----------5-----5-----5-------5---| x3
A|------------------------5h7-----------------------------5h7-----|
E|3---3---------------------------3---3---------------------------|

G|----------------------------------------------------------------|
D|--------5-----5-----5-------5-----------5-----------5-------5---|
A|------------------------5h7---------------------5h7-----5h7-----|
E|3---3---------------------------3---3---------------------------|

3:52

G|----------------------------------------------------------------|
D|--------5-----5-----5-------5-----------5-----5-----5-------5---| x2
A|------------------------5h7-----------------------------5h7-----|
E|3---3---------------------------3---3---------------------------|

G|----------------------------------------------------------------|
D|--------5---5-------5-------5-----------5-----5-----5-------5---|
A|----------------5h7-----5h7-----------------------------5h7-----|
E|3---3---------------------------3---3---------------------------|

4:05

G|----------------------------------------------------------------|
D|--------5-------------------5-----------5-------------------5---| x2
A|------------------------5h7-----------------------------5h7-----|
E|3---3-------3-3---3-------------3---3-------3-3---3-------------|

G|----------------------------------------------------------------|
D|--------5-------------------5-----------5-----------5-------5---|
A|------------------------5h7-----------------------------5h7-----|
E|3---3-------3-3---3-------------3---3-------3-3-----------------|

G|----------------------------------------------------------------|
D|--------5-------------------5-----------5-----------5-------5---|
A|------------------------5h7-----------------------------5h7-----|
E|3---3-------3-3---3-------------3---3-------3-3-----------------|

G|----------------------------------------------------------------|
D|--------5-----------5-------5-----------5-----------5-------5---| x2 to fadeout.
A|------------------------5h7-----------------------------5h7-----|
E|3---3-------3-3-----------------3---3-------3-3-----------------|

            
            
Suggest correction
Creating personal tab
Creating personal tab
You can edit any tab online and save it as your Personal.

You can edit, replace or remove any tab part or add personal notes – all changes will be seen only by you.

Personal tabs can be accessed anytime from any device, even offline.
Learn more »
Give kudos to tab author, rate the tab!
1 2 3 4 5
comments
print report bad tab
guest
You may want to rate the tab now too:
select rating
Wanna post a correction for this tab? Suggest correction