Oops, an error
Loading. Please wait.

Halo Of Flies Tab

version 3
version 3

Whole song

Interactive

2,489 views 18 this week
1 commentread comment
1 2 3 4 5
please rate
add to favorites
launch autoscroll
font size
0
reset
how to read this tab
guitar tuner
Tab Pro tools
  • play this tab
  • loop segment
  • change instrument
  • show fretboard
  • metronome
×
Best way to learn
"Halo Of Flies"
Autoscroll
slow
fast
+/-
esc
set tempo
stop
Contributor
Band: Alice Cooper
Song: Halo Of Flies
Album: Killer
Year: 1971
Tabbed by DoteStudios
Email is manbearpigisreal@gmail.com

Keys
b = bend
r = release
\ = slide up neck 
/ = slide down neck
h = hammer-on
p = pull-off
~ = hold note

Lead Guitar
E---------------------------------------------------------------------|
B-5h6-5h6-5h6-5h6-5h6-5h6…--9p8-9p8-9p8-9p8--12p11-12p11-12p11-12p11--|
G---------------------------------------------------------------------|
D---------------------------------------------------------------------|
A---------------------------------------------------------------------|
E---------------------------------------------------------------------|

E-10h11-10h11-10h11-10h11--12h13-12h13-12h13-12h13…-12~~--|
B---------------------------------------------------------|
G---------------------------------------------------------|
D---------------------------------------------------------|
A---------------------------------------------------------|
E---------------------------------------------------------|

Rhythm Guitar
E---------------------------|
B-5h6-5h6-5h6-5h6-5h6-5h6…--|
G---------------------------|
D---------------------------|
A---------------------------|
E---------------------------|

Bass Notes:
E----------------------------------------------|
B----------------------------------------------|
G----------------------------------------------|
D-2----------------------------------0----0-2--|
A----2--------2-3--0-2-3--0-2-3--2-3----3------|
E-------0---3----------------------------------|

E------------------------------------------------|
B------------------------------------------------|
G------------------------------------------------| 2x
D-7-7-7--7-7-7-9-9-9--9\-3-3-3--3-3-3-3-5-5-6-6--|
A-7-7-7--7-7-7-9-9-9--9\-3-3-3--3-3-3-3-5-5-6-6--|
E-5-0-5--0-5-0-7-0-7--7\-1-1-1--1-0-1-0-3-0-4-0--|

E---------------------------------------------------------------------|
B---------------------------------------------------------------------|
G---------------------------------------------------------9-9-9-9-9-9-|
D-----------------9-9-9-9-9-9-9-9-10-10-10-10-10-10-10-10-9-9-9-9-9-9-|
A-7-7-7-7-7-7-7-7-7-7-7-7-7-7-7-7--7--7--7--7--7--7--7--7-7-7-7-7-7-7-|
E---------------------------------------------------------------------|

Use the flange effect for below
E------------------------------------------------|
B------------------------------------------------|
G-9-------7-------7-9-7-----9-10-9-8----7---8----| 2x
D---10-7----10-9--------10------------9---9---9--|
A------------------------------------------------|
E------------------------------------------------|

E------------------------------------------|
B------------------------------------------|
G------------------------------------------|
D-7-----7-----7-6-5-4-3-----3-----5-----5--|
A-7-----7-----7-6-5-4-3-----3-----5-----5--|
E-5-0-0-5-0-0-5-4-3-2-1-0-0-1-0-0-3-0-0-3--|

Use the flange effect for the first time the below part is played
E---------------------------------------------------------------------|
B-------------------------------------5--7-7-8-5--8-7-5-7-7------5----|
G-7-5---5-4----4----------------4-5-7-----------------------5-5-7---7-|
D-----7------5---7-5-7-7--5-5-7---------------------------------------|
A---------------------------------------------------------------------|
E---------------------------------------------------------------------|

E----------------------------|
B----------------5--8-7-5-7--|
G----------4-5-7-------------|
D-7--5-5-7-------------------|
A----------------------------|
E----------------------------|

"I've got the answers to all of your questions
If you've got the money to pay me in gold
I will be living in old Monte Carlo
And you will be reading the secrets I sold”
E---------------------------------------------------------------------|
B-------------------------------------5--7-7-8-5--8-7-5-7-7------5----|
G-7-5---5-4----4----------------4-5-7-----------------------5-5-7---7-|
D-----7------5---7-5-7-7--5-5-7---------------------------------------|
A---------------------------------------------------------------------|
E---------------------------------------------------------------------|

E------------------------------------------------|
B----------------5--8-7-5-7---8-7-5-7---5--------|
G----------4-5-7--------------------------7-5-7--|
D-7--5-5-7---------------------------------------|
A------------------------------------------------|
E------------------------------------------------|

“Daggers and contacts and bright shiny limo
I've got a watch that turns into a lifeboat
Glimmering nightgowns and poisonous cobras
Silencer under the heel of my shoe”
E---------------------------------------------------------------------|
B-------------------------------------5--7-7-8-5--8-7-5-7-7------5----|
G-7-5---5-4----4----------------4-5-7-----------------------5-5-7---7-|
D-----7------5---7-5-7-7--5-5-7---------------------------------------|
A---------------------------------------------------------------------|
E---------------------------------------------------------------------|

E----------------------------|
B----------------5--8-7-5-7--|
G----------4-5-7-------------|
D-7--5-5-7-------------------|
A----------------------------|
E----------------------------|

E--------------------------------------------|
B------------7-------------------------------|
G-5--5--4-4--7---5--5--4-4-------------------|
D-5--5--4-4--7---5--5--4-4--2-2-2-2-2-2-2-2--|
A-3--3--2-2--5---3--3--2-2--2-2-2-2-2-2-2-2--|
E---------------------------0-0-0-0-0-0-0-0--|

“The elegance of China
They sent her to lie here on her back
but as she deeply moves me
She'd rather shoot me in my tracks”
E------------------------------------------|
B------------------------------------------|
G------------------------------------------|
D-7-----7-----7-6-5-4-3-----3-----5-----5--|
A-7-----7-----7-6-5-4-3-----3-----5-----5--|
E-5-0-0-5-0-0-5-4-3-2-1-0-0-1-0-0-3-0-0-3--|

Lead Guitar
E------------------------------------------|
B----------------------15b17r15-12-15b17~~-|
G----12-14-14b16r14-12---------------------|
D-14---------------------------------------|
A------------------------------------------|
E------------------------------------------|

Rhythm Guitar
E------------------------------------------|
B------------------------------------------|
G-----------------------7b9r7--5---7b9~~---|
D-----5--7--7b9r7--5-----------------------|
A--7---------------------------------------|
E------------------------------------------|

“She was a Malaysian lady
She really came as no surprise
But I still did destroy her
And I will smash
Halo of…”
E--------------------------------------------------------|
B--------------------------------------------------------|
G--------------------------------------------------------| 2x
D-7-----------------3-----------------5------------------|
A-7-(tremolo chord)-3-(tremolo chord)-5-(tremolo chord)--|
E-5-----------------1-----------------3------------------|

“flies…!!!”
E---------------------------|
B---------------------------|
G---------------------------|
D-7/9---7/9------7/9--------|
A-5/7---5/7-7-7--5/7-7-7-7--|
E---------------------------|

E------------------------------------------------|
B------------------------------------------------|
G------------------------------------------------| 2x
D-9--11--12--14--12--16/19--9--11--12--14--12-7--|
A-7---9--10--12--10--14/17--7---9--10--12--10-5--|
E------------------------------------------------|

“I crossed the ocean
Where no one could see
And I put a time-bomb
In your submarine
Goodbye to old friends
The secret's in hand
With phony note papers
And counterfeit plans
You never will understand”
E-------------------------------------------|
B-------------------------------------------|
G-x-x-x-x-x-x-x-x-----x-x-x-x-x-x-x-x-------| 6x
D-x-x-x-x-x-x-x-x-5-7-x-x-x-x-x-x-x-x-12-14-|
A-x-x-x-x-x-x-x-x-3-5-x-x-x-x-x-x-x-x-10-12-|
E-------------------------------------------|

E-12--11h12p11-------------------------------------------------9-10-11|
B---------------12--10h12h13p12p10h12-----------------10-12-13--------|
G--------------------------------------10h12p10-9--10-----------------|
D---------------------------------------------------------------------|
A---------------------------------------------------------------------|
E---------------------------------------------------------------------|
Repeat the above part 4x

E------------------------------------------------|
B------------------------------------------------|
G------------------------------------------------| 2x
D-9--11--12--14--12--16/19--9--11--12--14--12-7--|
A-7---9--10--12--10--14/17--7---9--10--12--10-5--|
E------------------------------------------------|

E------------------------7---7---7---7---7-----7------------|
B------------------------7---9---7---9---7--------7---------|
G------------------------7---9---7---9---7-----------7------|
D-9-9-9-9-9-9--9-9--9-9--7---9---7---9---7--------------7\--|
A-7-7-7-7-7-7--7-7--7-7--7---7---7---7---7------------------|
E-----------------------------------------------------------|

Bass during drum solo:
E----------------------|
B----------------------|
G----------------------| repeat
D----------------------|
A---7---7---7-------7--|
E-0---0---0----7-10----|

Lead Guitar (only)
E-----------------------------|
B-----------------------------|
G-----------------------------|
D-----------------------------|
A-7\2/7--7\2/7--7\2/7--7\2/7--|
E-----------------------------|

Lead Guitar
E----------------------------------------------------------------------|
B----------------------------------------------------------------------|
G----------------------------------------------------------------------|
D----------------------------------------------------------------------|
A-7\2/7---7\2/7---7\2/7---7\2/7---7\2/7---7\2/7---7\2/7---7\2/7---7\2/7|
E----------------------------------------------------------------------|

Rhythm Guitar
E----------------------------------------------------------------------|
B----------------------------------------------------------------------|
G----------------------------------------------------------------------|
D---------7-------------------------------7----------------------------|
A-7--9-10----10-9-10--9-7-9--7----7--9-10----10-9-10--9-7-9~~----------|
E------------------------------10--------------------------------------|

Lead Guitar
E---------------------------------------------------------------------|
B-12v--------12v--------12v--------12v--------12v--------12v----------|
G---------------------------------------------------------------------|
D---------------------------------------------------------------------|
A---------------------------------------------------------------------|
E---------------------------------------------------------------------|

Rhythm Guitar
E---------------------------------------------------------------------|
B---------------------------------------------------------------------|
G---------------------------------------------------------------------|
D---------7-------------------------------7---------------------------|
A-7--9-10----10-9-10--9-7-9--7----7--9-10----10-9-10--9-7-9~~---------|
E------------------------------10-------------------------------------|

Lead Guitar
E--------17-18-20--18-17-18--17----17------------17-18-20--18-17-18--|
B----20-------------------------20-----20-18-20----------------------|
G--------------------------------------------------------------------|
D--------------------------------------------------------------------|
A--------------------------------------------------------------------|
E--------------------------------------------------------------------|

E-17----17------17-18-20--18-17-18--17----17--------18--16----------|
B----20-----20-------------------------20-----20-18---------20--19--|
G-------------------------------------------------------------------|
D-------------------------------------------------------------------|
A-------------------------------------------------------------------|
E-------------------------------------------------------------------|

E-----------------|
B-16--15--13--12--|
G-----------------|
D-----------------|
A-----------------|
E-----------------|

Rhythm Guitar
E--------------------------------------------------------------------|
B--------------------------------------------------------------------|
G--------------------------------------------------------------------|
D--------------10--------------------------------------10------------|
A-8--10--12-13-----13-12-13--12-10-12--10----10--12-13-----13-12-13--|
E-----------------------------------------13-------------------------|

E--------------------------------------------------------------------|
B--------------------------------------------------------------------|
G--------------------------------------------------------------------|
D---------------------10---------------------------------------------|
A-12-10-12--10--12-13-----13-12-13--12-10-12--10----10--8--6--5--10--|
E------------------------------------------------13------------------|

E----------|
B----------|
G----------|
D----------|
A-8--6--5--|
E----------|

During solo…
Rhythm Guitar
E---------------------------------------------------------------------|
B---------------------------------------------------------------------|
G-9-9--9--7--5-5--5--7--9-9--9--7--5-5--5--7--9-9--9--7--5-5--5--7----|
D-9-9--9--7--5-5--5--7--9-9--9--7--5-5--5--7--9-9--9--7--5-5--5--7----|
A-7-7--7--5--3-3--3--5--7-7--7--5--3-3--3--5--7-7--7--5--3-3--3--5----|
E---------------------------------------------------------------------|

E-----------------------------|
B-----------------------------|
G-9-9--9--7--5-5--5--7--------|
D-9-9--9--7--5-5--5--7--2~~~--|
A-7-7--7--5--3-3--3--5--2~~~--|
E-----------------------0~~~--|

Rhythm Guitar (only)
E-------------------------------------------------|
B-------------------------------------------------|
G-------------------------------------------------|
D-------------------------------------------------|
A-------------0---------------0---------------0---|
E-0---2---3-------0---2---3-------0---2---3-------|

Lead Guitar
E----------------------------------------------------------------7--8-|
B------------------------------------------------------7--8--10-------|
G---------------------------------------------7--8--9-----------------|
D-----------7-----------7-----------7--9--10--------------------------|
A-7--9--10-----7--9--10----7--9--10-----------------------------------|
E---------------------------------------------------------------------|

E-10--11--12-12-12-12-12-12-12-12-12/-(repeat the slides 4x)--|
B---------12-12-12-12-12-12-12-12-12/-------------------------|
G-------------------------------------------------------------|
D-------------------------------------------------------------|
A-------------------------------------------------------------|
E-------------------------------------------------------------|

Rhythm Guitar (joins in on the sliding part above)
E------------------------------|
B------------------------------|
G-9-9-9-9-9-9-9-9-7------------|
D-9-9-9-9-9-9-9-9-7--repeat 4x-|
A-7-7-7-7-7-7-7-7-7------------|
E------------------------------|

Lead Guitar (only)
E---------------------------------------------|
B---------------------------------------------|
G-tremolo each note as you slide up the neck--|
D---------------------------------------------|
A---------------------------------------------|
E---------------------------------------------|

Lead and Rhythm Guitar
E-----------------------------------------------------|
B-----------------------------------------------------|
G---------------------------------7-------9--7----10--|
D---------7-------9--7----10--9-7----10-9------10-----|
A-7--9-10----10-9------10-----------------------------|
E-----------------------------------------------------|

Lead Guitar
E-----------------------------------------------|
B-----------------------------------------------|
G-tremolo each note as you slide from 11 to 21--|
D-----------------------------------------------|
A-----------------------------------------------|
E-----------------------------------------------|

Rhythm Guitar
E-----------------------------------------------|
B-----------------------------------------------|
G-10--------------------------------------------|
D-10-(tremolo the chord)------------------------|
A--8--------------------------------------------|
E-----------------------------------------------|

E-------------|
B-------------|
G-9--9-9-9-9--|
D-9--9-9-9-9--|
A-7--7-7-7-7--|
E-------------|
comments
We did not receive enough feedback on this tab! Please rate:
print report bad tab
1 2 3 4 5
1 comment total.
0 reply
melinbrawl wrote on September 12 2008, 09:44 am

five stars!great tab!it helped me a lot and what a song!

I want to post or [tab]
guest
You may want to rate the tab now too:
select rating
Please do not post tabs as comments. Select "correction" instead!