Oops, an error
Loading. Please wait.
We have an official Im Eighteen tab made by UG professional guitarists. Check out the tab »
×
7,733 views 1 this week
no commentswrite comment
1 2 3 4 5
x 3
add to favorites
×
Save as Personal and add changes to this tab that will be seen only by you. Learn more ›
×
You can save this tab as Personal to edit and correct it or add notes. All changes will be seen only by you. Learn more »
launch autoscroll
font size
0
reset
how to read this tab
guitar tuner
backing track
0:00
0:00
edit
Autoscroll
slow
fast
+/-
esc
set tempo
stop
Gtr I, II, III(E A D G B E) - 'dirty electric'
Gtr IV (E A D G B E) - 'clean electric'

 Intro
  Q=100
 4/4
  Gtr I
                     PM
  Q  E S S E E E E   e E Q  E   E E   E
|------------------|----------------------|
|------------------|--------------3-------|
|------------------|-----0------2---------|
|-9--9-------------|---2----0-------------|
|-7--7-----------0-|-3--------------------|
|-0--0-0-0-0-2-3---|----------------------|
|-Rhy Fig 1                 end Rhy Fig 1-|
|
| Gtr II
| Q  E S S E E E E   E E Q  S S E S S S S
|------------------|----------------------|
|------------------|------------7-7-7-----|
|------------------|-----5------7-7-7-----|
|-2--2-2-2---------|---5----5s7-7-7-7---0-|
|-2--2-----------0-|-3------3s5-5-5-5-----|
|-0--0-----0-2-3---|------------------0---|
|-Rhy Fig 1A end               Rhy Fig 1A-|   


  Q  E. S E E E E   E E Q  E   E E   E
|-----------------|----------------------|
|-----------------|--------------3-------|
|-----------------|-----0------2---------|
|-9--x------------|---2----0-------------|
|-7--x----------0-|-3--------------------|
|-0--0--0-0-2-3---|----------------------|
|
| Q  E. S E E E E   E E Q  S S E S S S S
|-----------------|----------------------|
|----0------------|----------------------|
|-0--0--0---------|-----5------7-x-x-x-0-|
|-2--2------------|---5----5s7-7---------|
|-2--2----------0-|-3------3s5-5---------|
|-0--0----0-2-3---|----------------------|


  A5                         B5
  Gtr I
   W                          W
   |                          |
   /                          /

  Gtr III
   Q       +H.                Q.        +E     +Q..         +S
|--------------------------|------------------------------------|
|-15b17===(17)-------------|-15b17=====(17)---(17)r========(15)-|
|--------------------------|------------------------------------|
|--------------------------|------------------------------------|
|--------------------------|------------------------------------|
|--------------------------|------------------------------------|
|
| Gtr II
|  Q        E. S E E S E S    Q      E   S  S   E  E S S S   S
|--------------------------|------------------------------------|
|--1--------1--1-1-1-1-0---|-------------5--5---5--5-5-4--------|
|--2--------2--2-2-2-2---x-|--4------4---4--4---4--4-4-4-4---4--|
|--2--------2--2-2-2-2-----|--4------4----------4--4-4---4---4--|
|--0--------0--0-0-0-0-----|--2------2----------4--4-4---2---2--|
|--------------------------|--------------------2--2-2----------|
|-Rhy Fig 2

  C5                                    D5
   W                                     W
   |                                     |
   /                                     /

   Q.          +E     +H                 Q.           +E   +Q            +E     +E
|-------------------------------------|------------------------------------------------|
|-15b17=======(17)---(17)-------------|-15b17========(17)-(17)----------(17)r==(15)----|
|-------------------------------------|------------------------------------------------|
|-------------------------------------|------------------------------------------------|
|-------------------------------------|------------------------------------------------|
|-------------------------------------|------------------------------------------------|
|
|  S     E. E   S  S  +E  E +S  S S S    S     E. Q         S   S  S  S   S  S   S  S
|-------------------------------------|------------------------------------------------|
|-----------5---5--5--(5)-5-(5)-5-5-5-|--5s====7-----------------------------0---0-----|
|--4s====5--5---5--5--(5)-5-(5)-5-5-5-|--5s====7-----------11--11-11-11--11---------0--|
|--4s====5--5---5--5--(5)-5-(5)-5-5-5-|--5s====7--7/-------12--12-12-12--12------------|
|--2s====3--3---3--3--(3)-3-(3)-3-3-3-|--3s====5--7/-------12--12-12-12--12------------|
|-------------------------------------|-----------5/-------10--10-10-10--10------------|
                                                                         end Rhy Fig 2-|

   S  S  S  S  S   S  S  S  E.      S     +E     E
|-------------------------------------------------------|
|-------------------------------------------------------|
|--------------------12-14-14b16---14b16-(16)---14b16---|
|-------------12--14------------------------------------|
|-------12-14-------------------------------------------|
|-12-15-------------------------------------------------|
|
|  Q           E.        S  E    E         S  S  S    S
|-------------------------------------------------------|
|--0-----------0---------0--0----0----------------------|
|--0-----------0-----------------0---------------0----0-|
|--2-----------2-----------------2---------x--x---------|
|--2-----------2---------------------------x--x---------|
|--0-----------0----------------------------------------|
|-Rhy Fig 3

                          ~~
   a      +Q    S  +E.    H
|-----------------------------------------||
|-----------------------------------------||
|-14b16==(16)--14r(14)---12---------------||
|-----------------------------------------||
|-----------------------------------------||
|-----------------------------------------||
|
|          Q    E      E  S S E +S  S S S
|---------------3-------------------------||
|----------3----3-------------3-(3)-3-0-0-||
|----------0----0-------------2-(2)-2-----||
|----------2--------------0-0-0-(0)-0-----||
|----------3--------------0---------------||
|-----------------------------------------||
                            end Rhy Fig 3-|

 Verse 1 & 2
  $

  Gtr IV
   E E E E +H       E E E E E E E E   E E E E +H       E E E E E E E E
|--0--------------|-----------------|-0--------------|-----------------|
|-^0-3-0----------|-------------3-0-|---3-0----------|-------------3-0-|
|-^0-----0-(0)----|-----0-----2-----|-------0-(0)----|-----0-----2-----|
|-^2--------------|---2-----0-------|----------------|---2-----0-------|
|-----------------|-3-----3---------|----------------|-3-----3---------|
|-----------------|-----------------|----------------|-----------------|
|-Rhy Fig 4

                                                              To Coda
  Gtr IV
  E E E E E E E E   E E E E E E E E   E E E E +H       E E E E E E E E
|---------0-------|-------2-3-2-0---|-0--------------|-----------------||
|-------1---1---1-|-----3---------3-|---3-0----------|-------------3-0-||
|-----0-------0---|---2-------------|-------0-(0)----|-----0-----2-----||
|---2-------------|-0---------------|----------------|---2-----0-------||
|-3---------------|-----------------|----------------|-3-----3---------||
|-----------------|-----------------|----------------|-----------------||
                                                          end Rhy Fig 4-|

   Chorus 1
   w/Rhy Fig 1A x3
    Gtr I
                       PM
    Q  E S S E E E E   e E Q  E   E E   E    3x
||-------------------|-----------------------||
||o------------------|--------------3-------o||
||-------------------|-----0------2----------||
||--2--2-------------|---2----0--------------||
||o-2--2-----------0-|-3--------------------o||
||--0--0-0-0-0-2-3---|-----------------------||


w/Rhy Fig 2
  W                   W
|-------------------|----------------------|
|-------------------|----------------------|
|-------------------|----------------------|
|-2-----------------|-4--------------------|
|-0-----------------|-2--------------------|
|-------------------|----------------------|



                                                             G
  W                            W
|----------------------------|-------------------------------|
|----------------------------|-------------------------------|
|----------------------------|-------------------------------|
|-5--------------------------|-7-----------------------------|
|-3--------------------------|-5-----------------------------|
|----------------------------|-------------------------------|


w/Rhy Fig 3
                                                                    D.S. al Coda
 Gtr III
   H            +E   +E    a   E    E      Q       +Q     +E     +E   Q
|---------------------------------------|----------------------------------------||
|---------------------------------------|----------------------------------------||
|-14b16========(16)-(16)-(16)r14--------|-14b16===(16)---(16)r==(14)-12----------||
|----------------------------------17---|----------------------------------------||
|---------------------------------------|----------------------------------------||
|---------------------------------------|----------------------------------------||



   Chorus 2
    &
w/Rhy Fig 1A
                       PM
    Q  E S S E E E E   e E Q  E E E E  3x
||-------------------|-----------------||
||o------------------|------------3---o||
||-------------------|-----0----2------||
||--2--2-------------|---2----0--------||
||o-2--2-----------0-|-3--------------o||
||--0--0-0-0-0-2-3---|-----------------||


w/Rhy Fig 2
  A5                                           B5
  Gtr I
   W                                             W
   |                                             |
   /                                             /

  Gtr III
                                                          ~~
   H            +Q     E       E         a      +E   +E   Q      S  S  E  E    S  S
|-------------------------------------|---------------------------------------------|
|-12-----------(12)-----------12------|---------------------------------------------|
|-14b16========(16)---14b16---14b16---|-14b16==(16)r(14)-12--------------12------12-|
|-------------------------------------|-------------------------14-12-14------14----|
|-------------------------------------|---------------------------------------------|
|-------------------------------------|---------------------------------------------|



  C5
   W
   |
   /

   S  S   S  S  S  S  S  S  E     E  E       E
|--------------------------------12---------12---|
|------------------------------------------------|
|-14p12--14p12-14p12-14-12-14b15----14b16--------|
|------------------------------------------------|
|------------------------------------------------|
|------------------------------------------------|

  D5
   
   |
   /

   Q        E.    S  E        E     S  S  S  S
|-12-------12----12-15b17----15----12------------||
|-15b17----15b17----------------------15-12------||
|-------------------------------------------14---||
|------------------------------------------------||
|------------------------------------------------||
|------------------------------------------------||


 Verse 3
w/Rhy Fig 4
  E5VII
   W                              W
   |
   /

   Q        +H.                   W
|-------------------------------|-------------------|
|-------------------------------|-------------------|
|-14b16====(16)-----------------|-------------------|
|-------------------------------|-------------------|
|-------------------------------|-------------------|
|-------------------------------|-------------------|
|
|  Q         E  E +S  S E S E S   Q   E E E E S S E
|-------------------------------|-------------------|
|---------------3-(3)---3---3-3-|-----3-0---3-3-x-0-|
|--0---------0--------0---0-0-0-|-0---------2-2-----|
|--2---------2--------2---2-----|-2---------0-0-----|
|--2----------------------------|-3-----------------|
|--0----------------------------|-------------------|



  W                   W
                                                ~~
  W                   H        a      +E     E  Q
|-------------------|---------------------------------|
|-------------------|---------------------------------|
|-------------------|---------14b16==(16)---14-12-----|
|-------------------|---------------------------------|
|-------------------|---------------------------------|
|-------------------|---------------------------------|
|
| Q   E E  E  E E E   Q   e E          S  S  E  E S S
|-------------------|-----0---------------------------|
|-----0----3--3-3---|-----1------------------3--3-----|
|-------0-----0-0---|-----0---------------2--2--2-2-0-|
|-2-----------2-2---|-2----------------------0--0-----|
|-2---------------0-|-3----------------------0--0-----|
|-0-----------------|---------------------------------|



   ~~
   W                 H       E  Q.
|------------------|-------------------|
|------------------|-------------------|
|------------------|-----------14------|
|-14---------------|-------------------|
|------------------|-------------------|
|------------------|-------------------|
|
|  Q   E E E E E E   Q   E E E  E  Q
|------0-----0-----|-------------------|
|------1-----1---1-|-----3------3------|
|--0---0-----0-0-0-|-----2------2------|
|--2---------2-----|-0---0------0------|
|--3---------3-----|-0----------0--0---|
|------------------|-------------------|



   +Q         H.                 W
|------------------------------|----------------------||
|------------------------------|----------------------||
|-(14)b16====14----------------|----------------------||
|------------------------------|----------------------||
|------------------------------|----------------------||
|------------------------------|----------------------||
|
|   Q         E  S S  E  E E E   Q   E.   S E E E E
|-!-0---------0-------0--0-0---|----------------------||
|-!-0---------0----0-----3-3---|-1---1------3-3-3-3---||
|-!-0--------------------0-0---|-0---0------2-2-2-2---||
|-!-2--------------------------|-2---2------0-0-0-0---||
|-!-2------------------------0-|-3---3----0-0-0-0-0---||
|-!-0--------------------------|----------------------||



 Chorus 3

  Gtr II plays Rhy Fig 1A x3

  Gtr I
                     PM
  Q  E S S E E E E   e E Q  E   E E   E
|------------------|----------------------|
|------------------|--------------3-------|
|------------------|-----0------2---------|
|-2--2-------------|---2----0-------------|
|-2--2-----------0-|-3--------------------|
|-0--0-0-0-0-2-3---|----------------------|

w/Rhy Fig 1
  H         Q       Q      a       W
|----------12------12---|---------12---------------------|
|----------15b17--------|-15b17==(17)--------------------|
|-----------------------|--------------------------------|
|-----------------------|--------------------------------|
|-----------------------|--------------------------------|
|-----------------------|--------------------------------|



  E5                    C5               D5
  Gtr I
    Q   Q     Q   Q       Q      E    E   E   E  E    E
    |   |     |   |       |      |    |   |   |  |    |
    /   /     /   /       /      /    /   /   /  /    /

   +W                    +Q     +E   +E   Q      E    E
|-(12)----------------|-(12)------------------------------|
|-(17)----------------|-(17)---(17)r(15)-12---------------|
|---------------------|-------------------------14---12---|
|---------------------|-----------------------------------|
|---------------------|-----------------------------------|
|---------------------|-----------------------------------|



         E5VII
           Q              Q                 Q               E  E
           |              |                 |               |  |
           /              /                 /               /  /

   a      +Q     a       +Q        a       +Q      a       +Q
|----------------------------------------------------------------|
|----------------------------------------------------------------|
|-14b16==(16)r=(14)b16==(16)r====(14)b16==(16)r==(14)b16==(16)---|
|----------------------------------------------------------------|
|----------------------------------------------------------------|
|----------------------------------------------------------------|



  C5                        D5
  Gtr I
   Q               Q          E    E  E    E
   |               |          |    |  |    |
   /               /          /    /  /    /

  Gtr III                                      G
   Q       a      +Q     a   +E    E  E    E
|----------------------------------------------|
|----------------------------------------------|
|-14b16---14b16==(16)--(16)r(14)--12-----------|
|------------------------------------14---12---|
|----------------------------------------------|
|----------------------------------------------|



  W            W            W
 Gtr I
  Q  H    Q    H    Q  Q    W
|------------|------------|-0----*|
|------------|------------|-0----*|
|-0--0-------|------------|-0----*|
|-2--2-------|-5----7-----|-2----*|
|-2--2-------|-3----5-----|-2----*|
|-0--0-------|------------|-0----*|
|
|Gtrs II, IV
| Q  H    Q    H    Q  Q    W
|------------|------2-----|-0----*|
|------------|-1----3-----|-0----*|
|-0--0-------|-0----2-----|-0----*|
|-2--2-------|-2----0-----|-2----*|
|-2--2-------|-3----------|-2----*|
|-0--0-------|------------|-0----*|

            
            
Suggest correction
Creating personal tab
Creating personal tab
You can edit any tab online and save it as your Personal.

You can edit, replace or remove any tab part or add personal notes – all changes will be seen only by you.

Personal tabs can be accessed anytime from any device, even offline.
Learn more »
Give kudos to tab author, rate the tab!
1 2 3 4 5
comments
print report bad tab
guest
Wanna post a correction for this tab? Suggest correction