Oops, an error
Loading. Please wait.

Novocaine tab

34 views 1 this week
2 commentsread comments
1 2 3 4 5
3 more votes to show rating
add to favorites
×
Save as Personal and add changes to this tab that will be seen only by you. Learn more ›
×
You can save this tab as Personal to edit and correct it or add notes. All changes will be seen only by you. Learn more »
launch autoscroll
font size
0
reset
how to read this tab
guitar tuner
edit
Autoscroll
slow
fast
+/-
esc
set tempo
stop
About this tab version
Includes chords above the tab. Was this info helpful? Yes No
[Intro]
  A
e|-------------------------------|
B|---------------2-2-------------|
G|-2-2-4-2-4-2-4-2-2-4-2-4-2-4-2-|
D|-2-2-2-2-2-2-2-2-2-2-2-2-2-2-2-| (x2)
A|-0-0-0-0-0-0-0-0-0-0-0-0-0-0-0-|
E|-------------------------------|

[Verse]
  A                                                    D               D
e|-----------------------------------------------------2---0---|      |-2----|
B|---------------2-2---------------------------2-2-----3---3---|      |-3----|
G|-2-2-4-2-4-2-4-2-2-4-2-4-2-4-2-2-2-4-2-4-2-4-2-2-4-2-2---2---|      |-2----|
D|-2-2-2-2-2-2-2-2-2-2-2-2-2-2-2-2-2-2-2-2-2-2-2-2-2-2-0---0---| (x2) |-0----|
A|-0-0-0-0-0-0-0-0-0-0-0-0-0-0-0-0-0-0-0-0-0-0-0-0-0-0---------|      |------|
E|-------------------------------------------------------------|      |------|

[Bridge]
  A
e|-------------------------------|
B|---------------2-2-------------|
G|-2-2-4-2-4-2-4-2-2-4-2-4-2-4-2-|
D|-2-2-2-2-2-2-2-2-2-2-2-2-2-2-2-|
A|-0-0-0-0-0-0-0-0-0-0-0-0-0-0-0-|
E|-------------------------------|

[Verse]
  A                                                    D
e|-----------------------------------------------------2---0---|    
B|---------------2-2---------------------------2-2-----3---3---|    
G|-2-2-4-2-4-2-4-2-2-4-2-4-2-4-2-2-2-4-2-4-2-4-2-2-4-2-2---2---|    
D|-2-2-2-2-2-2-2-2-2-2-2-2-2-2-2-2-2-2-2-2-2-2-2-2-2-2-0---0---| (x2)
A|-0-0-0-0-0-0-0-0-0-0-0-0-0-0-0-0-0-0-0-0-0-0-0-0-0-0---------|    
E|-------------------------------------------------------------|    

[Chorus]
   A       E       F#m     D
e|-5-5-5-5-5-5-5-5-5-5-5-5-5-5-5-5-|
B|-5-5-5-5-5-5-5-5-5-5-5-5-5-5-5-5-|
G|-2-2-2-2-4-4-4-4-2-2-2-2-2-2-2-2-|
D|-2-2-2-2-2-2-2-2-4-4-4-4-0-0-0-0-| (x4)
A|-0-0-0-0-------------------------|
E|---------------------------------|

[C-Part]
(Two guitars arranged for one.)
  Dm         E                           Bm7          A
e|--------------------------------------------------0------------------------|
B|----------------9-9----9-9----9-9----9----3-3---3---2-2b3r2---2------------|
G|-9b10--9-7-9--9-9-9--9-9-9--9-9-9--9-9---2----2-----2-------2-2------------|
D|-----------9--9-9-9--9-9-9--9-9-9--9-9--4-----------2---------2------------|
A|-----------7--7-7-7--7-7-7--7-7-7--7-7-2------------0---------0------------|
E|---------------------------------------------------------------------------|

  E                                E7
e|-0-0-0-0-0-0-0-0-0-0-0-0-0-0-0-0-0-0-0-0-0-0-0-0-0-0-0-0-0---7-------------|
B|-0-0-0-0-0-0-0-0-0-0-0-0-0-0-0-0-0-0-0-0-7-7-7-7-9-9-9-9-10--9-------------|
G|-9---9-9-9---9-9-9---9-9-9---9-9-7-7-7-7-7-7-7-7-7-7-7-7-7---7-------------|
D|-9---9-9-9---9-9-9---9-9-9---9-9-9-9-9-9-9-9-9-9-9-9-9-9-9---9-------------|
A|-7---7-7-7---7-7-7---7-7-7---7-7-7-7-7-7-7-7-7-7-7-7-7-7-7---7-------------|
E|---------------------------------------------------------------------------|

[Solo]
  A                                               D
e|-----------------------------------------------|---------------------0-------|
B|------------------------------5-5---5----------|-10\9-9\7-7-5--7--5--0-------|
G|-4b6--4b6--4b6r4p2---2--2-4/6-----6---6-/11-11-|-11\9-9\7-7-6--7--6----------|
D|-------------------4---------------------------|-----------------------------|
A|-----------------------------------------------|-----------------------------|
E|-----------------------------------------------|-----------------------------|

  A                                                  D
e|-------------------------------------------------|-17b19r17-12b14r12-12-------------------17---------------|
B|-----10-10----12b14-12-15------15-----17------17-|-17b19r17-12b14r12-12----------------------17------------|
G|-/11-------11----------18b19-pb19-/19-19b21-pb21-|----------------------------14-16-16b18-------pb18r16-14-|
D|-------------------------------------------------|----------------------14h16------------------------------|
A|-------------------------------------------------|---------------------------------------------------------|
E|-------------------------------------------------|---------------------------------------------------------|

[Verse]
  A                                                    D
  P.M.-----------------------------------------------|
e|-----------------------------------------------------2---0---|    
B|---------------2-2---------------------------2-2-----3---3---|    
G|-2-2-4-2-4-2-4-2-2-4-2-4-2-4-2-2-2-4-2-4-2-4-2-2-4-2-2---2---|    
D|-2-2-2-2-2-2-2-2-2-2-2-2-2-2-2-2-2-2-2-2-2-2-2-2-2-2-0---0---| 
A|-0-0-0-0-0-0-0-0-0-0-0-0-0-0-0-0-0-0-0-0-0-0-0-0-0-0---------|    
E|-------------------------------------------------------------|    

   A                                                   D
e|-----------------------------------------------------2---0---|    
B|---------------2-2---------------------------2-2-----3---3---|    
G|-2-2-4-2-4-2-4-2-2-4-2-4-2-4-2-2-2-4-2-4-2-4-2-2-4-2-2---2---|    
D|-2-2-2-2-2-2-2-2-2-2-2-2-2-2-2-2-2-2-2-2-2-2-2-2-2-2-0---0---| 
A|-0-0-0-0-0-0-0-0-0-0-0-0-0-0-0-0-0-0-0-0-0-0-0-0-0-0---------|    
E|-------------------------------------------------------------|

[Chorus]
   A       E       F#m     D
e|-5-5-5-5-5-5-5-5-5-5-5-5-5-5-5-5-|
B|-5-5-5-5-5-5-5-5-5-5-5-5-5-5-5-5-|
G|-2-2-2-2-4-4-4-4-2-2-2-2-2-2-2-2-|
D|-2-2-2-2-2-2-2-2-4-4-4-4-0-0-0-0-| (x8)
A|-0-0-0-0-------------------------|
E|---------------------------------|

[Outro]
   Dm        A
e|---------------------------------------------------------------------------|
B|-------------------------2-2---------------------------2-2-----------------|
G|-9b10--9-7-2-2-4-2-4-2-4-2-2-4-2-4-2-4-2-2-2-4-2-4-2-4-2-2-4-2-4-2-4-2-----|
D|-----------2-2-2-2-2-2-2-2-2-2-2-2-2-2-2-2-2-2-2-2-2-2-2-2-2-2-2-2-2-2-----|
A|-----------0-0-0-0-0-0-0-0-0-0-0-0-0-0-0-0-0-0-0-0-0-0-0-0-0-0-0-0-0-0-----|
E|---------------------------------------------------------------------------|

(Next part has two distinct guitar parts)
(Guitar 1)
  A
e|-------------------------------|
B|---------------2-2-------------|
G|-2-2-4-2-4-2-4-2-2-4-2-4-2-4-2-|
D|-2-2-2-2-2-2-2-2-2-2-2-2-2-2-2-| (x4)
A|-0-0-0-0-0-0-0-0-0-0-0-0-0-0-0-|
E|-------------------------------|

(Guitar 2)
  A
e|-----5-------------------------|
B|-------------------------------|
G|-4b6---------------------------|
D|-------------------------------| (x4)
A|-------------------------------|
E|-------------------------------|

[Ending]
  A
e|-------|
B|-2-----|
G|-2-----|
D|-2-----|
A|-0-----|
E|-------|




************************************

| r   Release
| b   Bend
| \   Slide down
| p   Pull-off
| /   Slide up
| pb  Pre-bend
| h   Hammer-on

************************************

            
            
Suggest correction
Creating personal tab
Creating personal tab
You can edit any tab online and save it as your Personal.

You can edit, replace or remove any tab part or add personal notes – all changes will be seen only by you.

Personal tabs can be accessed anytime from any device, even offline.
Learn more »
Give kudos to tab author, rate the tab!
1 2 3 4 5
comments
print report bad tab
2 comments total.
0 reply
Spinnerweb 540 Mar 26, 2017 12:33 AM

Thank you! :D

0 reply
davidlprst571 10 Aug 25, 2017 11:52 PM

nice work!

guest
You may want to rate the tab now too:
select rating
Wanna post a correction for this tab? Suggest correction