Oops, an error
Loading. Please wait.

Pick Up The Bones tab

version 1
version 1

Whole song

Interactive

2,867 views 3 this week
1 commentread comment
1 2 3 4 5
2 more votes to show rating
add to favorites
×
Save as Personal and add changes to this tab that will be seen only by you. Learn more ›
×
You can save this tab as Personal to edit and correct it or add notes. All changes will be seen only by you. Learn more »
launch autoscroll
font size
0
reset
how to read this tab
guitar tuner
edit
Autoscroll
slow
fast
+/-
esc
set tempo
stop
Artist: Alice Cooper
Song: Pick Up The Bones
Album: Brutal Planet
Year: 2000/2001 (Depends which version you have - normal or tour edition)
Tabbed By: M.B.MetalTabber

######
#SONG#
######

Intro/Riff:

 (Let Ring)
e:--------------------------|I
B:--------------------------|I
G:-----0-------0-------0----|I
D:---4---4---4---4---4---4--|I
A:-2-------0----------------|I
E:-----------------0--------|I

Verse:

e:--------------------------|I
B:--------------------------|I
G:-----0-------0-------0----|I
D:---4---4---4---4---4---4--|I
A:-2-------0----------------|I
E:-----------------0--------|I

Sorry, I haven't yet figured out the chorus or chord fill. I don't know the solo, but I 
know that it is played in the 'E minor Pentatonic Blues'
scale. For those of you who don't yet know it (Shame on you), here it is:

e:-------------------------------------12-15--|I (And then back down)
B:-------------------------------12-15--------|I
G:----------------------12-14-15--------------|I
D:----------------12-14-----------------------|I
A:-------12-13-14-----------------------------|I
E:-12-15--------------------------------------|I

Well, there it is. It's fairly easy to play. Learn and Enjoy.
(P.S. - Thanks for looking)
Suggest correction
Creating personal tab
Creating personal tab
You can edit any tab online and save it as your Personal.

You can edit, replace or remove any tab part or add personal notes – all changes will be seen only by you.

Personal tabs can be accessed anytime from any device, even offline.
Learn more »
Give kudos to tab author, rate the tab!
1 2 3 4 5
comments
print report bad tab
1 comment total.
+1 reply
Stride278 51 Oct 20, 2008 01:13 PM

hey bro, i got the solo. i realized the tunings really weird, its higher then C tuning but not at D tuning. what i do is just tune my guitar to the first note played on the cd and tune the rest from there, anyways, the first solos before the chorus are like this
|---------------------------------------------------------|
|----------------10-8-7-----------------------------15br~-|
|----7-9-9b~------------9-7-6-9-7--------7b---------------|
|-/9------------------------------9-7-9~------------------|
|---------------------------------------------------------|
|---------------------------------------------------------|
then the next little solo goes
|--------------------|
|-----------17b~-----|(hold the seventeen till the next solo)
|----16-19-----------|
|-/16----------------|
|--------------------|
|--------------------|
then
|-------17-19--17b-17b-17b-17b-17b-17b---|
|-17/19----------------------------------|
|----------------------------------------|
|----------------------------------------|
|----------------------------------------|
|----------------------------------------|
just remember, you have to have the right tuning for this to sound right.

guest
You may want to rate the tab now too:
select rating
Wanna post a correction for this tab? Suggest correction