Oops, an error
Loading. Please wait.

Raped And Freezin Live intro tab

version 2
version 2

Intro

274 views 1 this week
no commentswrite comment
1 2 3 4 5
3 more votes to show rating
add to favorites
×
Save as Personal and add changes to this tab that will be seen only by you. Learn more ›
×
You can save this tab as Personal to edit and correct it or add notes. All changes will be seen only by you. Learn more »
launch autoscroll
font size
0
reset
how to read this tab
guitar tuner
edit
Autoscroll
slow
fast
+/-
esc
set tempo
stop
Band: Alice Cooper
Song: Raped and Freezin' (Live)
Album: Billion Dollar Babies
Year: 1973
Tabbed by DoteStudios
Email is manbearpigisreal@gmail.com


Keys
b = bend
r = release
\ = slide up neck
/ = slide down neck
h = hammer-on
p = pull-off
~ = hold note
w = whammy bar
v = vibrato
*another thing is that in the solo I wrote 9b10~~10, which means bend the 9th fret till 
sounds like the 10th, then while it’s in the bend strum the string again

“This next song is dirty, you’ll love it”

  D   D   D   D U D U
E-x---x---x---x-x-x-x-|
B-x---x---x---x-x-x-x-|
G-x---x---x---x-x-x-x-| repeat many times
D-x---x---x---x-x-x-x-|
A-x---x---x---x-x-x-x-|
E-x---x---x---x-x-x-x-|

Mike comes in after 20 seconds…
Guitar 2 (Michael Bruce)
					 D   U   D   U   D   U
E--------------------------------------x---x---x---x---x---x---|
B--------------------------------------x---x---x---x---x---x---|
G-7------------------------------------x---x---x---x---x---x---|
D-7-------------------3----5-----------x---x---x---x---x---x---|
A-5-------------------3----5-----------x---x---x---x---x---x---|
E---------------------1----3-----------x---x---x---x---x---x---|

E-------------------------------------------------------|
B-------------------------------------------------------|
G-7--7--7\----------------------------------------------| 2x
D-7--7--7\------------3----5----------5-----7-----------|
A-5--5--5\------------3----5----------5-----7-----------|
E---------------------1----3----------3-----5-----------|

Glen comes in…
Guitar 1 (Glen Buxton)
E----------------------------------------17b19---17b19-hold-19r17--14--|
B-17b19---17b19-hold-19r17---15--17--15--------------------------------|
G----------------------------------------------------------------------|
D----------------------------------------------------------------------|
A----------------------------------------------------------------------|
E----------------------------------------------------------------------|

E---------17--17--17------------------|
B-17b19---hold bend---19r17-----15\---|
G-------------------------------------|
D-------------------------------------|
A-------------------------------------|
E-------------------------------------|

"Finally got a ride, this old broad down from Santa Fe”
		     “She was a real	 go-getter”
 “She 	      drawled so sweetly,     "I think, child
E-------------------------------------------------------|
B-------------------------------------------------------|
G-7-----------------------------------------------------| 3x
D-7-------------------3----5----------------7-----------|
A-5-------------------3----5----------------7-----------|
E---------------------1----3----------------5-----------|

“that things'll get better.”
E-------------------------------------------------------|
B-------------------------------------------------------|
G-7-----------------------------------------------------|
D-7-------------------3----5----------------6-----------|
A-5-------------------3----5----------------6-----------|
E---------------------1----3----------------4-----------|

“We pulled off the high-way,		          night black  as a…”
Guitar 1 (Glen Buxton)
E-----------------------------------------------------------------|
B-7-----------------------------------------------7---------------|
G-7----5----------------------7b9-----------------7----5----------|
D------------7--5---7----7---------------------------------7--5---|
A-----------------------------------------------------------------|
E-----------------------------------------------------------------|

Guitar 2 (Michael Bruce)
E-----------------------------------------------------------------|
B-----------------------------------------------------------------|
G-2--------2--------2-----2---------------------2--------2------2-|
D-2--------2--------2-----2---------------------2--------2------2-|
A-0--------0--------0-----0-------------3-------0--------0------0-|
E-----------------------------0--0--/3----------------------------|

“Wid-ow,			    	         Yeah, I   read the Bi-ble," she said,”
Guitar 1
E-----------------------------------------------------------------------|
B---------------10-8----------------7-----------------------------------|
G---------7h8-9------9-8-7----------7----5------------------------------|
D-7---7---------------------10--7-------------7--5---7----7-------------|
A-------------------------------------------------------------7--7--7/10|
E-----------------------------------------------------------------------|

Guitar 2
E-----------------------------------------------------------------------|
B-----------------------------------------------------------------------|
G----2----------------------------2--------2--------2-----2-------------|
D----2----------------------------2--------2--------2-----2-------------|
A----0-----------------3----------0--------0--------0-----0-------------|
E-----------0--0--/3-------------------------------------------0--0--/3-|

           "I wanna know  of you."
Guitar 1
E-----------------------------------7----------|
B--------------7-----------------8-------------|
G-----------7------7----------7----------------|
D-10--7/9-------------9----9-------------------|
A----------------------------------------------|
E----------------------------------------------|

Guitar 2
E-------------2-------2------------------------|
B-------------3-------3-----6--6----6----5--3--|
G------2/4----4-------4------------------------|
D------------------0---------------------------|
A-3--------------------------------------------|
E----------------------------------------------|

“Hey, 		    I think I've got a live one”
“Hey, 		    I think I found a live one”
“Hey, Hey, 	    I think I've got a live one”
“Yeah, Yeah, 	    I think I've got a live one”
E-------5-----5--3-----2----2------3---------|
B-------7-----5--3-----3----3------3----2----|
G-7-----7-----6--4-----2----2------0----2----| 4x
D-7-----7-----0--0-----0-----------0----2----|
A-5-----5--------------------------2----0----|
E----------------------------------3---------|

E-------------------------------------------------------|
B-------------------------------------------------------|
G-7--7--7\----------------------------------------------| 4x
D-7--7--7\------------3----5----------5-----7-----------|
A-5--5--5\------------3----5----------5-----7-----------|
E---------------------1----3----------3-----5-----------|

		“Oh”
		“Ok boys”
“Felt like I was hit by a diesel or a greyhound bus.”
		“She was no baby-sitter.”
"Keee… 		     Now sugar, 	Never…”
E-------------------------------------------------------|
B-------------------------------------------------------|
G-7--7--7\----------------------------------------------| 4x
D-7--7--7\------------3----5----------5-----7-----------|
A-5--5--5\------------3----5----------5-----7-----------|
E---------------------1----3----------3-----5-----------|

“…thought you'd be a quitter."
E-------------------------------------------------------|
B-------------------------------------------------------|
G-7--7--7\----------------------------------------------|
D-7--7--7\------------3----5----------------6-----------|
A-5--5--5\------------3----5----------------6-----------|
E---------------------1----3----------------4-----------|

“I open  - ed the  back door, she was greedy,    I ran through the ”
Guitar 1
E-----------------------------------------------------------------|
B-7-----------------------------------------------7---------------|
G-7----5------------------------------------------7----5----------|
D------------7--5---7----7----------------10--7------------7--5---|
A-----------------------------7--7--7/10--------------------------|
E-----------------------------------------------------------------|

Guitar 2
E-----------------------------------------------------------------|
B-----------------------------------------------------------------|
G-2--------2--------2-----2-----------------------2--------2------|
D-2--------2--------2-----2-----------------------2--------2------|
A-0--------0--------0-----0-------------3---------0--------0------|
E-----------------------------0--0--/3----------------------------|

“des-ert  she was chasin'.     No   time to get dressed, so I was naked”
Guitar 1
E-----------------------------------------------------------------------|
B-------------------------------7---------------------------------------|
G-------------------------------7----5----------------------------------|
D-7----7----------------10--7-------------7--5---7----7-----------------|
A-----------7--7--7/10--------------------------------------7--7--7/10--|
E-----------------------------------------------------------------------|

Guitar 2
E-----------------------------------------------------------------------|
B-----------------------------------------------------------------------|
G-2-----2------------------------2--------2--------2-----2--------------|
D-2-----2------------------------2--------2--------2-----2--------------|
A-0-----0--------------3---------0--------0--------0-----0--------------|
E------------0--0--/3-----------------------------------------0--0--/3--|

“Stranded in Chihuahua.”
Guitar 1
E-----------------------------------7---------|
B--------------7-----------------8------------|
G-----------7-------7---------7---------------|
D-10--7/9--------------9---9------------------|
A---------------------------------------------|
E---------------------------------------------|

Guitar 2
E-------------2-------2------------------------|
B-------------3-------3-----6--6----6----5--3--|
G------2/4----4-------4------------------------|
D------------------0---------------------------|
A-3--------------------------------------------|
E----------------------------------------------|

“Hey, 		    I think I've got a live one”
“Hey, 		    I think I found a live one”
“Hey, Hey, 	    I think I've got a live one”
“Yeah, Yeah, 	    I think I've got a live one”
E-------5-----5--3-----2----2------3---------|
B-------7-----5--3-----3----3------3----2----|
G-7-----7-----6--4-----2----2------0----2----| 4x
D-7-----7-----0--0-----0-----------0----2----|
A-5-----5--------------------------2----0----|
E----------------------------------3---------|

Solo 1
Guitar 2
E----------------------------5------------------------------------------|
B-------------3---5--3--5/7-----7---3--3/5----3-------------------------|
G-------2--4---------------------------------------4----2---------2--4--|
D-2--4-----------------------------------------------------2--4---------|
A-----------------------------------------------------------------------|
E-----------------------------------------------------------------------|

E------------------5b7---5b7---5--7--5----------------------------------|
B-6---5---5p3p0-------------------------5b7---7r5--3--5p3p0--3----------|
G---------------------------------------------------------------------2-|
D----------------------------------------------------------------2h4----|
A-----------------------------------------------------------------------|
E-----------------------------------------------------------------------|

E---------------------------------------|
B---------3----6----6--5---3-----5------|
G-2--4------------------------4-----4\--|
D---------------------------------------|
A---------------------------------------|
E---------------------------------------|

Guitar 1
E-------------------------------------------------------|
B-------------------------------------------------------|
G-7--7--7\----------------------------------------------| 4x
D-7--7--7\------------3----5----------5-----7-----------|
A-5--5--5\------------3----5----------5-----7-----------|
E---------------------1----3----------3-----5-----------|

E-------------------------------------------------------|
B-------------------------------------------------------|
G-7--7--7\----------------------------------------------|
D-7--7--7\------------3----5----------------6-----------|
A-5--5--5\------------3----5----------------6-----------|
E---------------------1----3----------------4-----------|

Solo 2
Guitar 1
E-12b14-----12--11--10--8b9---------------------------------------------|
B----------------------------10--10----7--10--8----5--8--7------7-------|
G------------------------------------------------------------7----------|
D------------------------------------------------------------------9b10-|
A-----------------------------------------------------------------------|
E-----------------------------------------------------------------------|

E---------------------5-------------20b22-----20-----17---------------|
B------------------------8--8b10----------------------------17---17---|
G-----------7b9--<9>--------------------------------------------------|
D-7--6--5-------------------------------------------------------------|
A---------------------------------------------------------------------|
E---------------------------------------------------------------------|

E-----------------------------------------------------------------------|
B-15--13----------------------------------------------------------------|
G----------14--12----------7----9b11----9b11r9p7--9b11-hold-11r9p7------|
D---------------------7h9-------------------------------------------9---|
A-----------------------------------------------------------------------|
E-----------------------------------------------------------------------|

Guitar 2
E-----------------------------------------------------------------|
B-----------------------------------------------------------------|
G-2--------2--------2-----2-----------------------2--------2------|
D-2--------2--------2-----2-----------------------2--------2------|
A-0--------0--------0-----0-------------3---------0--------0------|
E-----------------------------0--0--/3----------------------------|

E-----------------------------------------------------------------------|
B-----------------------------------------------------------------------|
G-2-----2------------------------2--------2--------2-----2--------------|
D-2-----2------------------------2--------2--------2-----2--------------|
A-0-----0--------------3---------0--------0--------0-----0--------------|
E------------0--0--/3-----------------------------------------0--0--/3--|

E-------------2-------2------------------------|
B-------------3-------3-----6--6----6----5--3--|
G------2/4----4-------4------------------------|
D------------------0---------------------------|
A-3--------------------------------------------|
E----------------------------------------------|

“Hey, 		    I think I've got a live one”
“Hey, 		    I think I found a live one”
“Hey, Hey, 	    I think I've got a live one”
“Yeah, Yeah, 	    I think I've got a live one”
E-------5-----5--3-----2----2------3---------|
B-------7-----5--3-----3----3------3----2----|
G-7-----7-----6--4-----2----2------0----2----| 4x
D-7-----7-----0--0-----0-----------0----2----|
A-5-----5--------------------------2----0----|
E----------------------------------3---------|

“Alone, raped and freezin’”
E-2-----------------------------------------0-------|
B-3-----------------------------------------0-------|
G-4-----------------------------------------1-------|
D-4-----------------------------------------2-------|
A-2-------------------------------2----0----2-------|
E-------------------------------------------0-------|

“Alone, cold and sneezin’,	     Alone, down in Mexico”
E------------------------------3----------------------------------|
B------------------------------3--------------------------2-------|
G------------------------------0--------------------------2-------|
D------------------------------0--------------------------2-------|
A------------------------------x--------------------------0-------|
E-------------------------2----3--------------------------3-------|

“Alone!”
E------------|
B-2----------|
G-2----------|
D-2----------|
A-0----------|
E------------|

No More Mr. Nice Guy begins...

            
            
Suggest correction
Creating personal tab
Creating personal tab
You can edit any tab online and save it as your Personal.

You can edit, replace or remove any tab part or add personal notes – all changes will be seen only by you.

Personal tabs can be accessed anytime from any device, even offline.
Learn more »
Give kudos to tab author, rate the tab!
1 2 3 4 5
comments
print report bad tab
guest
You may want to rate the tab now too:
select rating
Wanna post a correction for this tab? Suggest correction