Oops, an error
Loading. Please wait.

Roses On White Lace tab

version 1
version 1

Whole song

Interactive

28 views 1 this week
1 commentread comment
1 2 3 4 5
2 more votes to show rating
add to favorites
×
Save as Personal and add changes to this tab that will be seen only by you. Learn more ›
×
You can save this tab as Personal to edit and correct it or add notes. All changes will be seen only by you. Learn more »
launch autoscroll
font size
0
reset
how to read this tab
guitar tuner
edit
Autoscroll
slow
fast
+/-
esc
set tempo
stop
PM PM PM PM    PM PM PM PM    PM PM  
     E  S  S  S  S  E  S  S  S  S  E  S  S   
e|-----------------------------------------|
B|-----------------------------------------|
G|-----------------------------------------|
D|--2--------------4--------------5--------|
A|--2--------------2--------------3--------|
E|--0--0--0--0--0-----0--0--0--0-----0--0--|

    PM PM    PM PM PM PM    PM PM               PM PM PM PM     PM PM PM PM       
    S  S  E  S  S  S  S  E  S  S   E   E     E  S  S  S  S   E  S  S  S  S  Q     
e|----------------------------------------|--------------------------------------|
B|----------------------------------------|--------------------------------------|
G|----------------------------------------|--------------------------------------|
D|--------7--------------9--------10--12--|--9--------------10--------------7----|
A|--------5--------------7---------8--10--|--7---------------8--------------5----|
E|--0--0-----0--0--0--0-----0--0----------|-----0--0--0--0------0--0--0--0-------|

                           PM PM PM PM    PM PM PM PM    PM PM  
    W                   E  S  S  S  S  E  S  S  S  S  E  S  S   
e|-------------------|-----------------------------------------|
B|-------------------|-----------------------------------------|
G|-------------------|-----------------------------------------|
D|--L----------------|--2--------------4--------------5--------|
A|--L----------------|--2--------------2--------------3--------|
E|-------------------|--0--0--0--0--0-----0--0--0--0-----0--0--|

    PM PM    PM PM PM PM    PM PM               PM PM PM PM     PM PM PM PM       
    S  S  E  S  S  S  S  E  S  S   E   E     E  S  S  S  S   E  S  S  S  S  Q     
e|----------------------------------------|--------------------------------------|
B|----------------------------------------|--------------------------------------|
G|----------------------------------------|--------------------------------------|
D|--------7--------------9--------10--12--|--9--------------10--------------7----|
A|--------5--------------7---------8--10--|--7---------------8--------------5----|
E|--0--0-----0--0--0--0-----0--0----------|-----0--0--0--0------0--0--0--0-------|

                           PM PM PM PM    PM PM PM PM     PM PM  
    W                   E  S  S  S  S  E  S  S  S  S   E  S  S   
e|-------------------|------------------------------------------|
B|-------------------|------------------------------------------|
G|-------------------|------------------------------------------|
D|--L----------------|--9--------------7--------------12--------|
A|--L----------------|--7--------------5--------------10--------|
E|-------------------|-----0--0--0--0-----0--0--0--0------0--0--|

        PM PM PM PM        PM PM PM PM       PM PM PM PM      PM PM       
     E  S  S  S  S  Q.     S  S  S  S     E  S  S  S  S  Q    S  S  Q     
e|-------------------------------------|---------------------------------|
B|-------------------------------------|---------------------------------|
G|-------------------------------------|---------------------------------|
D|--12--------------9------------------|--9--------------7----------7----|
A|---9--------------7------------------|--7--------------5----------5----|
E|------0--0--0--0---------0--0--0--0--|-----0--0--0--0-------0--0-------|

                            PM PM PM PM    PM PM PM PM     PM PM  
    W                    E  S  S  S  S  E  S  S  S  S   E  S  S   
e|--------------------|------------------------------------------|
B|--------------------|------------------------------------------|
G|--------------------|------------------------------------------|
D|--L~----------------|--9--------------7--------------12--------|
A|--L~----------------|--7--------------5--------------10--------|
E|--------------------|-----0--0--0--0-----0--0--0--0------0--0--|

        PM PM PM PM        PM PM PM PM       PM PM PM PM      PM PM   NH    
     E  S  S  S  S  Q.     S  S  S  S     E  S  S  S  S  Q    S  S    Q     
e|-------------------------------------|-----------------------------------|
B|-------------------------------------|-----------------------------------|
G|-------------------------------------|-----------------------------------|
D|--12--------------9------------------|--9--------------7----------<>7----|
A|---9--------------7------------------|--7--------------5----------<>5----|
E|------0--0--0--0---------0--0--0--0--|-----0--0--0--0-------0--0---------|

                            PM PM    PM PM PM PM       PM PM    PM PM PM PM  
    W                    E  E  E  E  E  E  E  E     E  E  E  E  E  E  E  E   
e|--------------------|--------------------------|--------------------------|
B|--------------------|--------------------------|--------------------------|
G|--------------------|--------------------------|--------------------------|
D|--L~----------------|--------------------------|--------------------------|
A|--L~----------------|--2--------2--------------|--2--------2--------------|
E|--------------------|--0--0--0--0--0--0--0--0--|--0--0--0--0--0--0--0--0--|

     PM PM    PM PM PM PM                             
                             |----3----|              
  E  E  E  E  E  E  E  E     Q    Q    Q    H         
e|--------------------------|--------------------------|
B|--------------------------|-----------------0--------|
G|--------------------------|------------0-------------|
D|--------------------------|--------------------------|
A|--2--------2--------------|--0----3------------------|
E|--0--0--0--0--0--0--0--0--|--------------------------|

       PM PM    PM PM PM PM       PM PM    PM PM PM PM  
    E  E  E  E  E  E  E  E     E  E  E  E  E  E  E  E   
e|--------------------------|--------------------------|
B|--------------------------|--------------------------|
G|--------------------------|--------------------------|
D|--------------------------|--------------------------|
A|--2--------2--------------|--2--------2--------------|
E|--0--0--0--0--0--0--0--0--|--0--0--0--0--0--0--0--0--|

       PM PM    PM PM PM PM       PM                                      
    E  E  E  E  E  E  E  E     E  E  E  E  H            W                 
e|--------------------------|------------------------|-------------------|
B|--------------------------|------------------------|-------------------|
G|--------------------------|------------------------|-------------------|
D|--------------------------|------------------------|-------------------|
A|--2--------2--------------|--2-----2--3--2~--------|--3----------------|
E|--0--0--0--0--0--0--0--0--|-----0------------------|-------------------|

                             PM PM    PM PM PM PM       PM PM    PM PM PM PM  
    H        Q    Q       E  E  E  E  E  E  E  E     E  E  E  E  E  E  E  E   
e|---------------------|--------------------------|--------------------------|
B|---------------------|--------------------------|--------------------------|
G|---------------------|--------------------------|--------------------------|
D|---------------------|--------------------------|--------------------------|
A|--L--------5----3----|--2--------2--------------|--2--------2--------------|
E|---------------------|--0--0--0--0--0--0--0--0--|--0--0--0--0--0--0--0--0--|

    W                   W                   W                 
e|-------------------|-------------------|-------------------|
B|-------------------|-------------------|-------------------|
G|-------------------|-------------------|-------------------|
D|-------------------|-------------------|-------------------|
A|--3----------------|--1----------------|--0----------------|
E|-------------------|-------------------|-------------------|

    E  E  H.               Q     Q    Q    Q       Q    Q    Q     Q     
e|----------------------|-----------------------|-----------------------|
B|----------------------|-----------------------|-----------------------|
G|-----2--4~------------|-----------------------|-----------------------|
D|--3-------------------|--9----10----9---------|--4----5----7----10----|
A|----------------------|--7-----8----7---------|--2----3----5-----8----|
E|----------------------|-----------------------|-----------------------|

       PM PM PM PM    PM PM PM PM     PM PM  
    E  S  S  S  S  E  S  S  S  S   E  S  S   
e|------------------------------------------|
B|------------------------------------------|
G|------------------------------------------|
D|--9--------------7--------------12--------|
A|--7--------------5--------------10--------|
E|-----0--0--0--0-----0--0--0--0------0--0--|

      PM PM PM PM      PM PM PM PM PM PM                                  
                                            |----3----|    |--3-|         
   E  S  S  S  S  Q    S  S  S  S  S  S     Q    Q    Q    Q    H         
e|-----------------------------------------|-------------------------------|
B|-----------------------------------------|-------------------------------|
G|-----------------------------------------|-------------------------------|
D|--12--------------9----------------------|--7----7----7----7-------------|
A|---9--------------7----------------------|--5----5----5----5-------------|
E|------0--0--0--0-------0--0--0--0--0--0--|-------------------------------|

                               PM PM PM PM    PM PM PM PM     PM PM  
    Q    Q    Q     Q       E  S  S  S  S  E  S  S  S  S   E  S  S   
e|-----------------------|------------------------------------------|
B|-----------------------|------------------------------------------|
G|-----------------------|------------------------------------------|
D|--4----5----7----10----|--9--------------7--------------12--------|
A|--2----3----5-----8----|--7--------------5--------------10--------|
E|-----------------------|-----0--0--0--0-----0--0--0--0------0--0--|

      PM PM PM PM      PM PM PM PM PM PM                                  
                                            |----3----|    |--3-|         
   E  S  S  S  S  Q    S  S  S  S  S  S     Q    Q    Q    Q    H         
e|-----------------------------------------|-------------------------------|
B|-----------------------------------------|-------------------------------|
G|-----------------------------------------|-------------------------------|
D|--12--------------9----------------------|--7----7----7----7-------------|
A|---9--------------7----------------------|--5----5----5----5-------------|
E|------0--0--0--0-------0--0--0--0--0--0--|-------------------------------|

    Q.     Q    E  E  E     W                    Q.     Q    E  E  E   
e|-----------------------|--------------------|-----------------------|
B|-----------------------|--------------------|-----------------------|
G|-----------------------|--------------------|-----------------------|
D|-----------------------|--------------------|-----------------------|
A|--2------3----2--0-----|--------------------|--3------2----0--------|
E|--------------------3--|--2~----------------|-----------------3--2--|

       PM PM    PM PM PM PM       PM PM    PM PM PM PM  
    E  E  E  E  E  E  E  E     E  E  E  E  E  E  E  E   
e|--------------------------|--------------------------|
B|--------------------------|--------------------------|
G|--------------------------|--------------------------|
D|--------------------------|--------------------------|
A|--2--------2--------------|--2--------2--------------|
E|--0--0--0--0--0--0--0--0--|--0--0--0--0--0--0--0--0--|

     PM PM    PM PM PM PM                             
                             |----3----|              
  E  E  E  E  E  E  E  E     Q    Q    Q    H         
e|--------------------------|--------------------------|
B|--------------------------|-----------------0--------|
G|--------------------------|------------0-------------|
D|--------------------------|--------------------------|
A|--2--------2--------------|--0----3------------------|
E|--0--0--0--0--0--0--0--0--|--------------------------|

       PM PM    PM PM PM PM       PM PM    PM PM PM PM  
    E  E  E  E  E  E  E  E     E  E  E  E  E  E  E  E   
e|--------------------------|--------------------------|
B|--------------------------|--------------------------|
G|--------------------------|--------------------------|
D|--------------------------|--------------------------|
A|--2--------2--------------|--2--------2--------------|
E|--0--0--0--0--0--0--0--0--|--0--0--0--0--0--0--0--0--|

       PM PM    PM PM PM PM       PM                                      
    E  E  E  E  E  E  E  E     E  E  E  E  H            W                 
e|--------------------------|------------------------|-------------------|
B|--------------------------|------------------------|-------------------|
G|--------------------------|------------------------|-------------------|
D|--------------------------|------------------------|-------------------|
A|--2--------2--------------|--2-----2--3--2~--------|--3----------------|
E|--0--0--0--0--0--0--0--0--|-----0------------------|-------------------|

                             PM PM    PM PM PM PM       PM PM    PM PM PM PM  
    H        Q    Q       E  E  E  E  E  E  E  E     E  E  E  E  E  E  E  E   
e|---------------------|--------------------------|--------------------------|
B|---------------------|--------------------------|--------------------------|
G|--L------------------|--------------------------|--------------------------|
D|---------------------|--------------------------|--------------------------|
A|--L--------5----3----|--2--------2--------------|--2--------2--------------|
E|---------------------|--0--0--0--0--0--0--0--0--|--0--0--0--0--0--0--0--0--|

    W                   W                   W                 
e|-------------------|-------------------|-------------------|
B|-------------------|-------------------|-------------------|
G|-------------------|-------------------|-------------------|
D|-------------------|-------------------|-------------------|
A|--3----------------|--1----------------|--0----------------|
E|-------------------|-------------------|-------------------|

    E  E  H.               Q     Q    Q    Q       Q    Q    Q     Q     
e|----------------------|-----------------------|-----------------------|
B|----------------------|-----------------------|-----------------------|
G|-----2--4~------------|-----------------------|-----------------------|
D|--3-------------------|--9----10----9---------|--4----5----7----10----|
A|----------------------|--7-----8----7---------|--2----3----5-----8----|
E|----------------------|-----------------------|-----------------------|

       PM PM PM PM    PM PM PM PM     PM PM  
    E  S  S  S  S  E  S  S  S  S   E  S  S   
e|------------------------------------------|
B|------------------------------------------|
G|------------------------------------------|
D|--9--------------7--------------12--------|
A|--7--------------5--------------10--------|
E|-----0--0--0--0-----0--0--0--0------0--0--|

      PM PM PM PM      PM PM PM PM PM PM                                  
                                            |----3----|    |--3-|         
   E  S  S  S  S  Q    S  S  S  S  S  S     Q    Q    Q    Q    H         
e|-----------------------------------------|-------------------------------|
B|-----------------------------------------|-------------------------------|
G|-----------------------------------------|-------------------------------|
D|--12--------------9----------------------|--7----7----7----7-------------|
A|---9--------------7----------------------|--5----5----5----5-------------|
E|------0--0--0--0-------0--0--0--0--0--0--|-------------------------------|

                               PM PM PM PM    PM PM PM PM     PM PM  
    Q    Q    Q     Q       E  S  S  S  S  E  S  S  S  S   E  S  S   
e|-----------------------|------------------------------------------|
B|-----------------------|------------------------------------------|
G|-----------------------|------------------------------------------|
D|--4----5----7----10----|--9--------------7--------------12--------|
A|--2----3----5-----8----|--7--------------5--------------10--------|
E|-----------------------|-----0--0--0--0-----0--0--0--0------0--0--|

      PM PM PM PM      PM PM PM PM PM PM                                  
                                            |----3----|    |--3-|         
   E  S  S  S  S  Q    S  S  S  S  S  S     Q    Q    Q    Q    H         
e|-----------------------------------------|-------------------------------|
B|-----------------------------------------|-------------------------------|
G|-----------------------------------------|-------------------------------|
D|--12--------------9----------------------|--7----7----7----7-------------|
A|---9--------------7----------------------|--5----5----5----5-------------|
E|------0--0--0--0-------0--0--0--0--0--0--|-------------------------------|

    Q.     Q    E  E  E     W                    Q.     Q    E  E  E   
e|-----------------------|--------------------|-----------------------|
B|-----------------------|--------------------|-----------------------|
G|-----------------------|--------------------|-----------------------|
D|-----------------------|--------------------|-----------------------|
A|--2------3----2--0-----|--------------------|--3------2----0--------|
E|--------------------3--|--2~----------------|-----------------3--2--|

    PM PM PM PM PM PM PM PM    PM PM PM PM               
    E  E  E  E  E  E  E  E     E  E  E  E  E  E   E  E   
e|--------------------------|---------------------------|
B|--------------------------|---------------------------|
G|-----------4--------5-----|-----7--------9--7---------|
D|--2-----------4--------5--|--------7-----------10--9--|
A|-----2-----------2--------|--3--------5---------------|
E|--------0-----------------|---------------------------|

    PM PM PM PM PM PM PM PM    PM PM PM PM PM PM PM PM  
    E  E  E  E  E  E  E  E     E  E  E  E  E  E  E  E   
e|--------------------------|--------------------------|
B|--------------------------|--------------------------|
G|-----------4--------5-----|--------------4--------4--|
D|--2-----------4--------5--|-----------2--------------|
A|-----2-----------2--------|--3--0--3--------0--3-----|
E|--------0-----------------|--------------------------|

    PM PM PM PM PM PM PM PM    PM PM PM PM               
    E  E  E  E  E  E  E  E     E  E  E  E  E  E   E  E   
e|--------------------------|---------------------------|
B|--------------------------|---------------------------|
G|-----------4--------5-----|-----7--------9--7---------|
D|--2-----------4--------5--|--------7-----------10--9--|
A|-----2-----------2--------|--3--------5---------------|
E|--------0-----------------|---------------------------|

    PM PM PM PM PM PM PM PM    PM PM PM PM PM PM PM PM  
    E  E  E  E  E  E  E  E     E  E  E  E  E  E  E  E   
e|--------------------------|--------------------------|
B|--------------------------|--------------------------|
G|-----------4--------5-----|--------------4--------4--|
D|--2-----------4--------5--|-----------2--------------|
A|-----2-----------2--------|--3--0--3--------0--3-----|
E|--------0-----------------|--------------------------|

    PM PM PM PM PM PM PM PM    PM PM PM PM               
    E  E  E  E  E  E  E  E     E  E  E  E  E  E   E  E   
e|--------------------------|---------------------------|
B|--------------------------|---------------------------|
G|-----------4--------5-----|-----7--------9--7---------|
D|--2-----------4--------5--|--------7-----------10--9--|
A|-----2-----------2--------|--3--------5---------------|
E|--------0-----------------|---------------------------|

    PM PM PM PM PM PM PM PM    PM PM PM PM PM PM PM PM  
    E  E  E  E  E  E  E  E     E  E  E  E  E  E  E  E   
e|--------------------------|--------------------------|
B|--------------------------|--------------------------|
G|-----------4--------5-----|--------------4--------4--|
D|--2-----------4--------5--|-----------2--------------|
A|-----2-----------2--------|--3--0--3--------0--3-----|
E|--------0-----------------|--------------------------|

    PM PM PM PM PM PM PM PM    PM PM PM PM               
    E  E  E  E  E  E  E  E     E  E  E  E  E  E   E  E   
e|--------------------------|---------------------------|
B|--------------------------|---------------------------|
G|-----------4--------5-----|-----7--------9--7---------|
D|--2-----------4--------5--|--------7-----------10--9--|
A|-----2-----------2--------|--3--------5---------------|
E|--------0-----------------|---------------------------|

    PM PM PM PM PM PM PM PM    PM PM PM PM PM PM PM PM  
    E  E  E  E  E  E  E  E     E  E  E  E  E  E  E  E   
e|--------------------------|--------------------------|
B|--------------------------|--------------------------|
G|-----------4--------5-----|--------------4--------4--|
D|--2-----------4--------5--|-----------2--------------|
A|-----2-----------2--------|--3--0--3--------0--3-----|
E|--------0-----------------|--------------------------|

       PM PM PM PM    PM PM PM PM    PM PM  
    E  S  S  S  S  E  S  S  S  S  E  S  S   
e|-----------------------------------------|
B|-----------------------------------------|
G|-----------------------------------------|
D|--2--------------4--------------5--------|
A|--2--------------2--------------3--------|
E|--0--0--0--0--0-----0--0--0--0-----0--0--|

    PM PM    PM PM PM PM    PM PM               PM PM PM PM     PM PM PM PM       
    S  S  E  S  S  S  S  E  S  S   E   E     E  S  S  S  S   E  S  S  S  S  Q     
e|----------------------------------------|--------------------------------------|
B|----------------------------------------|--------------------------------------|
G|----------------------------------------|--------------------------------------|
D|--------7--------------9--------10--12--|--9--------------10--------------7----|
A|--------5--------------7---------8--10--|--7---------------8--------------5----|
E|--0--0-----0--0--0--0-----0--0----------|-----0--0--0--0------0--0--0--0-------|

                           PM PM PM PM    PM PM PM PM    PM PM  
    W                   E  S  S  S  S  E  S  S  S  S  E  S  S   
e|-------------------|-----------------------------------------|
B|-------------------|-----------------------------------------|
G|-------------------|-----------------------------------------|
D|--L----------------|--2--------------4--------------5--------|
A|--L----------------|--2--------------2--------------3--------|
E|-------------------|--0--0--0--0--0-----0--0--0--0-----0--0--|

    PM PM    PM PM PM PM    PM PM               PM PM PM PM     PM PM PM PM       
    S  S  E  S  S  S  S  E  S  S   E   E     E  S  S  S  S   E  S  S  S  S  Q     
e|----------------------------------------|--------------------------------------|
B|----------------------------------------|--------------------------------------|
G|----------------------------------------|--------------------------------------|
D|--------7--------------9--------10--12--|--9--------------10--------------7----|
A|--------5--------------7---------8--10--|--7---------------8--------------5----|
E|--0--0-----0--0--0--0-----0--0----------|-----0--0--0--0------0--0--0--0-------|

                                          |----3----|    |-----3-----|      
  W                   W                   Q    Q    Q    Q     Q     Q      
e|-------------------|-------------------|----------------------------------|
B|-------------------|-------------------|----------------------------------|
G|-------------------|-------------------|----------------------------------|
D|--L----------------|-------------------|--4----5----7----9----10----12----|
A|--L----------------|-------------------|--2----3----5----7-----8----10----|
E|-------------------|-------------------|----------------------------------|



************************************

| W - whole
| H - half
| Q - quarter
| E - 8th
| S - 16th
| T - 32nd
| X - 64th
| . - note dotted
| |-n-|  - n-tuplets
| L - tied note
| x - dead note
| g - grace note
| (n) - ghost note
| > - accentuded note
| NH - natural harmonic
| AH - artificial harmonic
| TH - tapped harmonic
| SH - semi harmonic
| PH - pitch harmonic
| h - hammer on
| p - pull off
| b - bend
| br - bendRelease
| pb - preBend
| pbr - preBendRelease
| brb - bendReleaseBend
| \n/ - tremolo bar dip
| \n - tremolo bar dive
| -/n - tremolo bar Release up
| /n\ - tremolo bar inverted dip
| /n - tremolo bar return
| -\n - tremolo bar Release down
| S - shift slide
| s - legato slide
| / -  slide into from below or out of upwards
| \ -  slide into from above or out of downwards
| ~ - vibrato
| W - wide vibrato
| tr - trill
| TP - tremolo picking
| T - tapping
| S - slap
| P - pop
| < - fade in
| ^ - brush up
| v - brush down

************************************

            
            
Suggest correction
Creating personal tab
Creating personal tab
You can edit any tab online and save it as your Personal.

You can edit, replace or remove any tab part or add personal notes – all changes will be seen only by you.

Personal tabs can be accessed anytime from any device, even offline.
Learn more »
Give kudos to tab author, rate the tab!
1 2 3 4 5
comments
print report bad tab
1 comment total.
0 reply
sav_man 18 Jul 08, 2017 05:41 AM

Thanks for posting

guest
You may want to rate the tab now too:
select rating
Wanna post a correction for this tab? Suggest correction