Oops, an error
Loading. Please wait.

Schools Out Tab

version 1
version 1
131,023 views 225 this week
11 commentsread comments
1 2 3 4 5
worth learning
x 24
add to favorites
launch autoscroll
font size
0
reset
how to read this tab
guitar tuner
Tab Pro tools
  • play this tab
  • loop segment
  • change instrument
  • show fretboard
  • metronome
×
Best way to learn
"Schools Out"
Autoscroll
slow
fast
+/-
esc
set tempo
stop
#----------------------------------PLEASE NOTE---------------------------------#
#This file is the author's own work and represents their interpretation of the #
#song. You may only use this file for private study, scholarship, or research. #
#------------------------------------------------------------------------------##
From: James T. Morris 

                        SCHOOL'S OUT            
                            BY

                       ALICE COOPER

    Em     (Main Riff  Method 1)                                               
E-|------------------------------------------------------------------|
B-|---------14-----------12-----------14-----------------------------|
G-|---------14-----------12-----------14--12-------------------------|
D-|---------14-----------12-----------14-----------------------------|
A-|-14--14-------14--14------14--14----------------------------------|
E-|-12--12-------12--12------12--12----------------------------------|
                                                                               
    Em     (Main Riff  Method 2)                                               
E-|------------------------------------------------------------------|
B-|------------------------------------------------------------------|
G-|---------14-----------12----------14---12-------------------------|
D-|-14--14--14---14--14--12--14--14--14------------------------------|
A-|-14--14-------14--14------12--14----------------------------------|
E-|-12-----------12----------12--------------------------------------|
                                                                       Em

Well we got no choice     

All girls and boys    

Making  all that noise

Cause they found new toys                                                     
     C                                      D     Eb

Well we cant salute you can't find the flag      if that don't suit

you that's a drag                    

Gm      Bb   C  F   Gm                 Bb   C  F  Gm

Schools out for summer        schools out for  ever

C                              D

No more pencils no more books  no more teachers dirty looks      



comments
print report bad tab
11 comments total. Showing first comments.
0 reply
superpollock wrote on February 11 2003, 12:00 am

i'm sure theres more

+2 reply
freedam wrote on April 10 2003, 12:00 am


p= pull-off ~~~= vibrato

x= mute


Intro

e-|-------------------------------------
b-|-------------------------------------
g-|-------------------------------------
d-|--------14----------12---------14----
a-|-14-14--14---14-14--12--14-14--14----
E-|-12-12-------12-12------12-12--------

e-|-------------------------------------
b-|-------------------------------------
g-|-12~~~-------------------------------
d-|---------14p13p12--------------------
a-|-------------------------------------
E-|-------------------------------------
Verse
Well we got........
e-|-------------------------------------
b-|-------------------------------------
g-|-------------------------------------
d-|--------14----------12---------14-12-
a-|-14-14--14---14-14--12--14-14--14-12-
E-|-12-12-------12-12------12-12--------

Well we can't salute....
e-|-8--8--8--8---10-11--11--11--11------
b-|-8--8--8--8---10-11--11--11--11------
g-|-9--9--9--9---11-12--12--12--12------
d-|-------------------------------------
a-|-------------------------------------
E-|-------------------------------------
Chorus
School's out for............
e-|-------------------------------------
b-|------------------<----3x---->-------
g-|-------------12--12-x-x-x-x-12-------
d-|-5----8--10--12--12-x-x-x-x-12-------
a-|-5----8--10--10--10-x-x-x-x-10-------
E-|-3----6---8--------------------------

0 reply
Fallen_Haven wrote on June 18 2003, 12:00 am

freedam, ure tab sounds good
why dont u submit it?

I want to post or [tab]
guest
You may want to rate the tab now too:
select rating
Please do not post tabs as comments. Select "correction" instead!