Oops, an error
Loading. Please wait.

Schools Out tab

version 5
version 5
1,282 views 15 this week
2 commentsread comments
1 2 3 4 5
x 6
add to favorites
×
Save as Personal and add changes to this tab that will be seen only by you. Learn more ›
×
You can save this tab as Personal to edit and correct it or add notes. All changes will be seen only by you. Learn more »
launch autoscroll
font size
0
reset
how to read this tab
guitar tuner
backing track
0:00
0:00
edit
Autoscroll
slow
fast
+/-
esc
set tempo
stop
Author
Difficulty
intermediate
Artist: Alice Copper
Title:  School’s out

This Tab doesn’t include the Solo

Tabs by FEPO
Tuning: Standard E A D G B e

[Intro]

e|--------------------------------------------------|
B|------------10-----------8-----------10--8~~-8\---|
G|------------9------------7-----------9-------9\---|  
D|-----9--9---7-----9--9--------9--9---7------------| x 6
A|-----7--7---------7--7--------7--7----------------|
E|--------------------------------------------------|



[VERSE 1]

  Well we got no choice
e|--------------------------------------------------|
B|------------10-----------8-----------10--8~~-8\---|
G|------------9------------7-----------9-------9\---|  
D|-----9--9---7-----9--9--------9--9---7------------|
A|-----7--7---------7--7--------7--7----------------|
E|--------------------------------------------------|

  all the girls and boys
e|--------------------------------------------------|
B|------------10-----------8-----------10--8~~-8\---|
G|------------9------------7-----------9-------9\---|  
D|-----9--9---7-----9--9--------9--9---7------------|
A|-----7--7---------7--7--------7--7----------------|
E|--------------------------------------------------|



  Makin' all that noise
e|--------------------------------------------------|
B|------------10-----------8-----------10--8~~-8\---|
G|------------9------------7-----------9-------9\---|  
D|-----9--9---7-----9--9--------9--9---7------------|
A|-----7--7---------7--7--------7--7----------------|
E|--------------------------------------------------|


   
 'cause they found new toys
e|--------------------------------------------------|
B|------------10-----------8-----------10--8~~-8\---|
G|------------9------------7-----------9-------9\---|  
D|-----9--9---7-----9--9--------9--9---7------------|
A|-----7--7---------7--7--------7--7----------------|
E|--------------------------------------------------|






[Pre Chorus]

       Well we can't salute ya, can't find a flag

e|---------------------------------------------------------|
B|---------------------------------------------------------|
G|------5-----5-----5-----5-----5----5----5-7--------------|
D|------5-----5-----5-----5-----5----5----5-7--------------|
A|------3-----3-----3-----3-----3----3----3-5--------------|
E|---------------------------------------------------------|


          If that don't suit ya , that's a drag

e|---------------------------------------------------------|
B|---------------------------------------------------------|
G|------8-----8-----8-----8-----8----8----8-7--------------|
D|------8-----8-----8-----8-----8----8----8-7--------------|
A|------6-----6-----6-----6-----6----6----6-5--------------|
E|---------------------------------------------------------|


[Chorus]

  School's  out  for  sum- mer
e|-----------------------------3--3-3-3-3--3-3-3-3--3-3-3--|
B|-----------------------------3--3-3-3-3--3-3-3-3--3-3-3--|
G|----------3----5-------------3--3-3-3-3--3-3-3-3--3-3-3--|
D|--5-------3----5---3---5-----5--5-5-5-5--5-5-5-5--5-5-5--|
A|--5-------1----3---3---5---------------------------------|
E|--3----------------1---3---------------------------------|


  School’s  out  for   e -ver

e|-----------------------------3--3-3-3-3--3-3-3-3--3-3-3--|
B|-----------------------------3--3-3-3-3--3-3-3-3--3-3-3--|
G|----------3----5-------------3--3-3-3-3--3-3-3-3--3-3-3--|
D|--5-------3----5---3---5-----5--5-5-5-5--5-5-5-5--5-5-5--|
A|--5-------1----3---3---5---------------------------------|
E|--3----------------1---3---------------------------------|



School’s  been  blown to pie -ces

e|-----------------------------3--3-3-3-3--3-3-3-3--3-3-3--|
B|-----------------------------3--3-3-3-3--3-3-3-3--3-3-3--|
G|----------3----5-------------3--3-3-3-3--3-3-3-3--3-3-3--|
D|--5-------3----5---3---5-----5--5-5-5-5--5-5-5-5--5-5-5--|
A|--5-------1----3---3---5---------------------------------|
E|--3----------------1---3---------------------------------|







After the three School’s out, play then this

     E     G      F
e|----------------1----------------------------------------|
B|----------------1----------------------------------------|
G|---2------------2----------------------------------------|
D|---2------5-----3----------------------------------------|
A|---0------5-----3----------------------------------------|
E|---0------3-----1----------------------------------------|

Let the last F Barre’  Chord ring

No more pencils
no more books
no more teacher's dirty looks
yeah


Solo


[VERSE 2]

  Well we got no class
e|--------------------------------------------------|
B|------------10-----------8-----------10--8~~-8\---|
G|------------9------------7-----------9-------9\---|  
D|-----9--9---7-----9--9--------9--9---7------------|
A|-----7--7---------7--7--------7--7----------------|
E|--------------------------------------------------|

  And we got no principals
e|--------------------------------------------------|
B|------------10-----------8-----------10--8~~-8\---|
G|------------9------------7-----------9-------9\---|  
D|-----9--9---7-----9--9--------9--9---7------------|
A|-----7--7---------7--7--------7--7----------------|
E|--------------------------------------------------|



  We  ain’t got no intelligence
e|--------------------------------------------------|
B|------------10-----------8-----------10--8~~-8\---|
G|------------9------------7-----------9-------9\---|  
D|-----9--9---7-----9--9--------9--9---7------------|
A|-----7--7---------7--7--------7--7----------------|
E|--------------------------------------------------|


   
 We can't even think of a word that rhymes
e|--------------------------------------------------|
B|------------10-----------8-----------10--8~~-8\---|
G|------------9------------7-----------9-------9\---|  
D|-----9--9---7-----9--9--------9--9---7------------|
A|-----7--7---------7--7--------7--7----------------|
E|--------------------------------------------------|


[Chorus]

  School's  out  for  sum- mer
e|-----------------------------3--3-3-3-3--3-3-3-3--3-3-3--|
B|-----------------------------3--3-3-3-3--3-3-3-3--3-3-3--|
G|----------3----5-------------3--3-3-3-3--3-3-3-3--3-3-3--|
D|--5-------3----5---3---5-----5--5-5-5-5--5-5-5-5--5-5-5--|
A|--5-------1----3---3---5---------------------------------|
E|--3----------------1---3---------------------------------|


 
 School’s  out  for   e -ver

e|-----------------------------3--3-3-3-3--3-3-3-3--3-3-3--|
B|-----------------------------3--3-3-3-3--3-3-3-3--3-3-3--|
G|----------3----5-------------3--3-3-3-3--3-3-3-3--3-3-3--|
D|--5-------3----5---3---5-----5--5-5-5-5--5-5-5-5--5-5-5--|
A|--5-------1----3---3---5---------------------------------|
E|--3----------------1---3---------------------------------|



School’s  been  blown to pie -ces

e|-----------------------------3--3-3-3-3--3-3-3-3--3-3-3--|
B|-----------------------------3--3-3-3-3--3-3-3-3--3-3-3--|
G|----------3----5-------------3--3-3-3-3--3-3-3-3--3-3-3--|
D|--5-------3----5---3---5-----5--5-5-5-5--5-5-5-5--5-5-5--|
A|--5-------1----3---3---5---------------------------------|
E|--3----------------1---3---------------------------------|


After the three School’s out, play then this

     E     G      F
e|----------------1----------------------------------------|
B|----------------1----------------------------------------|
G|---2------------2----------------------------------------|
D|---2------5-----3----------------------------------------|
A|---0------5-----3----------------------------------------|
E|---0------3-----1----------------------------------------|

Let the last F Barre’  Chord ring


No more pencils
no more books
no more teacher's dirty looks
Out for summer
out till fall
we might not come back at all





[Chorus]

  School's  out  for  e - ver
e|-----------------------------3--3-3-3-3--3-3-3-3--3-3-3--|
B|-----------------------------3--3-3-3-3--3-3-3-3--3-3-3--|
G|----------3----5-------------3--3-3-3-3--3-3-3-3--3-3-3--|
D|--5-------3----5---3---5-----5--5-5-5-5--5-5-5-5--5-5-5--|
A|--5-------1----3---3---5---------------------------------|
E|--3----------------1---3---------------------------------|



  School’s  out  for   sum - mer

e|-----------------------------3--3-3-3-3--3-3-3-3--3-3-3--|
B|-----------------------------3--3-3-3-3--3-3-3-3--3-3-3--|
G|----------3----5-------------3--3-3-3-3--3-3-3-3--3-3-3--|
D|--5-------3----5---3---5-----5--5-5-5-5--5-5-5-5--5-5-5--|
A|--5-------1----3---3---5---------------------------------|
E|--3----------------1---3---------------------------------|



   School's  out no fe - ver

e|-----------------------------3--3-3-3-3--3-3-3-3--3-3-3--|
B|-----------------------------3--3-3-3-3--3-3-3-3--3-3-3--|
G|----------3----5-------------3--3-3-3-3--3-3-3-3--3-3-3--|
D|--5-------3----5---3---5-----5--5-5-5-5--5-5-5-5--5-5-5--|
A|--5-------1----3---3---5---------------------------------|
E|--3----------------1---3---------------------------------|





  school's             out           completely

e|---------------------------------------------------|
B|----------8b9-----------8b9------------------------|
G|---------------------------------------------------|
D|---------------------------------------------------|
A|---------------------------------------------------|
E|---------------------------------------------------|



************************************

| /   slide up
| \   slide down
| h   hammer-on
| p   pull-off
| ~   vibrato
| +   harmonic
| x   Mute note
| b   Bend
| pb  Pre-bend
| br  Bend release
| pbr Pre-bend release
| brb Bend release bend




Any Question?

Grave-digger2@web.de

Suggest correction
Creating personal tab
Creating personal tab
You can edit any tab online and save it as your Personal.

You can edit, replace or remove any tab part or add personal notes – all changes will be seen only by you.

Personal tabs can be accessed anytime from any device, even offline.
Learn more »
comments
print report bad tab
2 comments total.
0 reply
andyozzie6 10 Apr 18, 2016 07:20 PM

The fact I can see it as a result of the

guest
You may want to rate the tab now too:
select rating
Wanna post a correction for this tab? Suggest correction