Oops, an error
Loading. Please wait.

Better Off Alone Tab

version 1
version 1

Whole song

Interactive

16,828 views 39 this week
1 commentread comment
1 2 3 4 5
x 5
add to favorites
launch autoscroll
font size
0
reset
how to read this tab
guitar tuner
Autoscroll
slow
fast
+/-
esc
set tempo
stop
Help us to improve Ultimate-Guitar.com Take our survey!
×
Alice Deejay - Better Off Alone
By: bt12483@aol.com

~=let ring
/=slide

Intro: Lead Guitar(:00 to :26, with some kind of delay/echo effect on)
e|------------------------------------------------------------------|
B|-12p0p12p0~-0p12h9p0p9p0~-0p9h14p0p14p0~-0p14h11p0p11p0~----------|
G|------------------------------------------------------------------|
D|------------------------------------------------------------------|
A|------------------------------------------------------------------|
E|------------------------------------------------------------------|

Rhythm Guitar (Entire song except for a few parts, listen)
e|------------------------------------------------------------------|
B|------------------------------------------------------------------|
G|--------8--------------------------9------8-------13------11------|
D|-2------8-[x8]-6------4-------or---9-[x8]-8-[x8]--13-[x8]-11-[x8]-|
A|-2-[x8]-6------6-[x8]-4-[x8]-------7------6-------11-------9------|
E|-0-------------4------2-------------------------------------------|

Lead Guitar(:55 to 1:36)ļ  
e|-----------------------------------------------12-12-11-----------|
B|-12~-12~-12~-12~-12~-11h12~-12~-11h12~-12-12-9----------12-12-9---|
G|------------------------------------------------------------------|
D|------------------------------------------------------------------|
A|------------------------------------------------------------------|
E|------------------------------------------------------------------|

e|---------12-12-11-------------------------------------------------|
B|-12-12-9----------12-12-9-----------------------------------------|
G|------------------------------------------------------------------|
D|------------------------------------------------------------------|
A|------------------------------------------------------------------|
E|------------------------------------------------------------------|

Lead Guitar: Main Riff (repeated throughout song)
e|--------------------14-14-11-7-7-4-7-7-6/12-12-11-repeat----------|
B|-12-12-9-12-12-11-9/----------------------------------------------|
G|------------------------------------------------------------------|
D|------------------------------------------------------------------|
A|------------------------------------------------------------------|
E|------------------------------------------------------------------|
Suggest correction
comments
print report bad tab
1 comment total.
+1 reply
zeroux 10 Sep 16, 2012 06:38 AM

e|--------------------14-14-11-7-7-4-7-7-6-2/12-12-11-repeat----------|
B|-12-12-9-12-12-11-7/----------------------------------------------|
G|------------------------------------------------------------------|
D|------------------------------------------------------------------|
A|------------------------------------------------------------------|
E|------------------------------------------------------------------|


Actually the main riff should be more like this.

guest
You may want to rate the tab now too:
select rating
Wanna post a correction for this tab? Suggest correction