Oops, an error
Loading. Please wait.

Better Off Alone tab

version 2
version 2

Whole song

Interactive

19,176 views 18 this week
6 commentsread comments
1 2 3 4 5
x 20
add to favorites
×
Save as Personal and add changes to this tab that will be seen only by you. Learn more ›
×
You can save this tab as Personal to edit and correct it or add notes. All changes will be seen only by you. Learn more »
launch autoscroll
font size
0
reset
how to read this tab
guitar tuner
edit
Autoscroll
slow
fast
+/-
esc
set tempo
stop
Author
was happnin , the tabs for this song on here are nearly correct but i've made some 
to make it perfect , hope u like it ;)
standard tuning.
any questions e-mail me at dukey_2k3@hotmail.com.
this track is usually played on a keyboard but seeing as the album is called 'who needs 
anyway' i thought id be facetious.

e------------------------|
b-12--11-12----12--11-12-| (intro) (x 4)
g------------------------|
d------------------------|
a------------------------|
e------------------------|

e-------------14-14-11------------12-12-11------------|  (1st riff)(x 2)
g-12-12----------------12-12---------------12-12------|
b-------13-------------------13--------------------13-|
d-----------------------------------------------------|
a-----------------------------------------------------|
e-----------------------------------------------------|

e-------------------14-14-11-------------------12-12-11--------|
b-12-12----12-11-11----------12-12----12-11-11---------12-12---|
g------13--------------------------13-----------------------13-| (main riff)
d--------------------------------------------------------------|
a--------------------------------------------------------------|
e--------------------------------------------------------------|

you can work out the timing by listning to the track
best trance song ever! hope you enjoy!
Suggest correction
Creating personal tab
Creating personal tab
You can edit any tab online and save it as your Personal.

You can edit, replace or remove any tab part or add personal notes – all changes will be seen only by you.

Personal tabs can be accessed anytime from any device, even offline.
Learn more »
comments
print report bad tab
6 comments total. Showing first comments.
0 reply
kevin ~ ? 10 Jun 11, 2007 02:19 PM

Damn dude good job i love this song are you going to put out more techo tab???? RAVE ON!!!!!!!!

+1 reply
friji 165 Aug 02, 2007 10:15 AM

wow techno on guitar. i loves it. gr8 job

0 reply
Deathguise 10 Nov 18, 2007 11:45 AM

e---------------------14-14-11---------------------12-12-11---------|
b-12-12----12-12-11------------12-12----12-12-11-
---------12-12-----|
g------13-----------11----------------13---------11--------------13-|

d-------------------------------------------------------------------|
a----------------------------------------------
---------------------|
e-------------------------------------------------------------------|

have you tried it like
this?

guest
You may want to rate the tab now too:
select rating
Wanna post a correction for this tab? Suggest correction