Oops, an error
Loading. Please wait.

A Little Bitter Bass Tab

52 views 9 this week
no commentswrite comment
1 2 3 4 5
3 more votes to show rating
add to favorites
launch autoscroll
font size
0
reset
guitar tuner
Autoscroll
slow
fast
+/-
esc
set tempo
stop
Help us to improve Ultimate-Guitar.com Take our survey!
×
Author
Difficulty
Tuning
intermediate
C# G# C# F# A# D#
Title: A Little Bitter (Remix Version)
Artist: Alice In Chains
Bassist: Mike Ines
Composer: Cantrell/Inez/Kinney/Staley
Tabbed By: FLBatista


INTRO:

Gb|-7----/9----|
Db|-7----/9----|
Ab|-5----/7----|
Db|------------|


VERSE (How the mind does...):

Gb|---------------------------|---------------------------|
Db|-----------3--3------2--2--|-----------3--3------2--5--|
Ab|-----0-0-0-------0-0-------|-----0-0-0-------0-0-------|
Db|-2-------------------------|-2-------------------------|

Gb|----------------------------|------------------------2/4-|
Db|-----------3--3------2--2-2-|-----------3--3------2------|
Ab|-----0-0-0-------0-0--------|-----0-0-0-------0-0--------|
Db|-2--------------------------|-2--------------------------|

Gb|----------------------------|---------------------------|
Db|-----------3--3------2--2-2-|-----------3--3------2--5--|
Ab|-----0-0-0-------0-0--------|-----0-0-0-------0-0-------|
Db|-2--------------------------|-2-------------------------|

Gb|---------------------------|-----------------|
Db|-----------3--3------2--2--|-----------------|
Ab|-----0-0-0-------0-0-------|-----------------|
Db|-2-------------------------|-0-0-0-0-0-0-0-0-|


VERSE 2 (Lord is this a test...):

Gb|----------------------------|--------------------------|
Db|-----------3--3------2--2-2-|-----------3--3------2--5-|
Ab|-----0-0-0-------0-0--------|-----0-0-0-------0-0------|
Db|-2--------------------------|-2------------------------|

Gb|---------------------------|------------------------2/4-|
Db|----------3--3------2--2-2-|-----------3--3------2------|
Ab|----0-0-0-------0-0--------|-----0-0-0-------0-0--------|
Db|-2-------------------------|-2--------------------------|

Gb|----------------------------|---------------------------|
Db|-----------3--3------2--2-2-|-----------3--3------2--5--|
Ab|-----0-0-0-------0-0--------|-----0-0-0-------0-0-------|
Db|-2--------------------------|-2-------------------------|

Gb|---------------------------|-----------------|
Db|-----------3--3------2--2--|-----------------|
Ab|-----0-0-0-------0-0-------|-----------------|
Db|-2-------------------------|-0-0-0-0-0-0-0-0-|


CHORUS (Who. Are you...)(x8):

Gb|----------------------------|
Db|----------------------------|
Ab|----------------------------|
Db|--6-6-5-0-0--2----0--2--0-0-|


MAIN RIFF:

Gb|---------------------------|--------------------------|
Db|-----------3--3------2--2--|-----------3--3------2----|
Ab|-----0-0-0-------0-0-------|-----0-0-0-------0-0------|
Db|-2-------------------------|-2------------------------|

Gb|---------------------------|-----------------------2/4-|
Db|-----------3--3------2--x--|----------3--3------2------|
Ab|-----0-0-0-------0-0-------|----0-0-0-------0-0--------|
Db|-2-------------------------|-2-------------------------|

Gb|---------------------------|-------------------------|
Db|-----------3--3------x--2--|----------3--3------2--5-|
Ab|-----0-0-0-------0-0-------|----0-0-0-------0-0------|
Db|-2-------------------------|-2-----------------------|

Gb|---------------------------|-----------------|
Db|-----------3--3------2--2--|-----------------|
Ab|-----0-0-0-------0-0-------|-----------------|
Db|-2-------------------------|-0-0-0-0-0-0-0-0-|


VERSE 2 (Was it something that I said?...):

Gb|----------------------------|-------------------------|
Db|-----------3--3------2--2-2-|----------3--3------2--5-|
Ab|-----0-0-0-------0-0--------|----0-0-0-------0-0------|
Db|-2--------------------------|-2-----------------------|

Gb|--------------------------|-----------------------2/4-|
Db|----------3--3------2--x--|----------3--3------2------|
Ab|----0-0-0-------0-0-------|----0-0-0-------0-0--------|
Db|-2------------------------|-2-------------------------|

Gb|---------------------------|-------------------------|
Db|-----------3--3------2--x--|----------3--3------2--5-|
Ab|-----0-0-0-------0-0-------|----0-0-0-------0-0------|
Db|-2-------------------------|-2-----------------------|

Gb|---------------------------|-----------------|
Db|----------3--3------2--2/4-|-----------------|
Ab|----0-0-0-------0-0--------|-----------------|
Db|-2-------------------------|-0-0-0-0-0-0-0-0-|


CHORUS (You. Spend me...) (x8):

Gb|----------------------------|
Db|----------------------------|
Ab|----------------------------|
Db|--6-6-5-0-0--2----0--2--0-0-|


RIFF 3 (You fade...):

Gb|-------------------------------|
Db|------------------------5--5-5-|x3
Ab|-7-0-0-5-0-0-7--0-0-5h7--------|
Db|-------------------------------|

Gb|----------------------------7--|--------------------------------|
Db|-----------------5--5-5-7h9----|-------------------------5--5-5-|
Ab|-7-0-0-5-0-0-5h7---------------|-7-0-0-5-0-0-7---0-0-5h7--------|
Db|-------------------------------|--------------------------------|

Gb|---------------------------|--------------------------------|
Db|---------------------------|-------------------------5--5-5-|
Ab|-7-0-0-5-0-0-7-----------5-|-7-0-0-5-0-0-7---0-0-5h7--------|
Db|----------------7--8--9----|--------------------------------|

Gb|----------------------------7--|--------------------------------|
Db|-----------------5--5-5-7h9----|-------------------------5--5-5-|
Ab|-7-0-0-5-0-0-5h7---------------|-7-0-0-5-0-0-7---0-0-5h7--------|
Db|-------------------------------|--------------------------------|

Gb|---------------------------|--------------------------------|
Db|---------------------------|-------------------------5--5-5-|
Ab|-7-0-0-5-0-0-7-----------5-|-7-0-0-5-0-0-7---0-0-5h7--------|
Db|----------------7--8--9----|--------------------------------|

Gb|----------------------------7--|--------------------------------|
Db|-----------------5--5-5-7h9----|-------------------------5--5-5-|
Ab|-7-0-0-5-0-0-5h7---------------|-7-0-0-5-0-0-7---0-0-5h7--------|
Db|-------------------------------|--------------------------------|

Gb|----------------------------|--------------------------------|----------------------|
Db|----------------/9--7--5----|-------------------------5--5-5-|----------------------|
Ab|-7-0-0-5-0-0-7------------x-|-7-0-0-5-0-0-7---0-0-5h7--------|-7-0-0-5-5-5-7--------|
Db|----------------------------|--------------------------------|----------------------|

Gb|--------------------------------|---------------------------|
Db|-------------------------5--5-5-|---------------------------|
Ab|-7-0-0-5-0-0-7---0-0-5h7--------|-7-0-0-5-0-0-7-----------5-|
Db|--------------------------------|----------------7--8--9----|

Gb|--------------------------------|-----------------------|
Db|-------------------------5--5-5-|-----------------------|
Ab|-7-0-0-5-0-0-7---0-0-5h7--------|-7-0-0-5-0-0-7\--------|
Db|--------------------------------|-----------------------|

Gb|--------------------------------|----------------------------|
Db|-------------------------5--5-5-|----------------/9--7--6----|
Ab|-7-0-0-5-0-0-7---0-0-5h7--------|-7-0-0-5-0-0-7------------5-|
Db|--------------------------------|----------------------------|

Gb|--------------------------------|-----------------------|
Db|-------------------------5--5-5-|-----------------------|
Ab|-7-0-0-5-0-0-7---0-0-5h7--------|-7-0-0-5-0-0-7\--------|
Db|--------------------------------|-----------------------|

Gb|-----------------------|
Db|-----------------------|
Ab|-7-7-7-7-5-5-7\--------|
Db|-----------------------|


INTERLUDE:

Gb|--------------------|------------------------|------------------------|
Db|--------------------|------------------------|------------------------|
Ab|--------------------|------------------------|------------------------|
Db|-2---0---2----x-0-1-|-2--2-0--0-2\-----x-0-1-|-2--2-0--0-2\-----x-0-1-|

Gb|-----------------------|------------------------|-----------------------|
Db|-----------------------|------------------------|-----------------------|
Ab|-----------------------|------------------------|-----------------------|
Db|-2-2-2-0-0-0-2\--x-0-1-|-2--2-0--0-2\-----x-0-1-|-2-2-2-0-0-0-2\--x-0-1-|

Gb|----------------------|--------------------|
Db|----------------------|--------------------|
Ab|----------------------|--------------------|
Db|-2--2-0--0-2\-----2\--|-0-------------9\---|


VERSE (Individuality...):

Gb|----------------------------|--------------------------|
Db|-----------3--3------2--2-2-|-----------3--3------2--5-|
Ab|-----0-0-0-------0-0--------|-----0-0-0-------0-0------|
Db|-2--------------------------|-2------------------------|

Gb|----------------------------|------------------------2/4-|
Db|-----------3--3------2--2-2-|-----------3--3------2------|
Ab|-----0-0-0-------0-0--------|-----0-0-0-------0-0--------|
Db|-2--------------------------|-2--------------------------|

Gb|----------------------------|---------------------------|
Db|-----------3--3------2--2-x-|-----------3--3------2--5--|
Ab|-----0-0-0-------0-0--------|-----0-0-0-------0-0-------|
Db|-2--------------------------|-2-------------------------|

Gb|----------------------------|-----------------|
Db|-----------3--3------2--2/4-|-----------------|
Ab|-----0-0-0-------0-0--------|-----------------|
Db|-2--------------------------|-0-0-0-0-0-0-0-0-|


CHORUS and OUTRO:

Gb|----------------------------|
Db|----------------------------|x15
Ab|----------------------------|
Db|--6-6-5-0-0-2---0--2--0--0--|

Gb|-----------------------|
Db|-----------------------|
Ab|-----------------------|
Db|-6-6-5-0-0--2----------|


****************************
| h : Hammer On
| / : Slide Up
| \ : Slide Down
****************************
Suggest correction
Give kudos to tab author, rate the tab!
1 2 3 4 5
comments
print report bad tab
guest
You may want to rate the tab now too:
select rating
Wanna post a correction for this tab? Suggest correction