Oops, an error
Loading. Please wait.

A Looking In View Tab

version 1
version 1

Whole song

Interactive

16,781 views 12 this week
14 commentsread comments
1 2 3 4 5
accurate
x 4
add to favorites
launch autoscroll
font size
0
reset
how to read this tab
guitar tuner
Autoscroll
slow
fast
+/-
esc
set tempo
stop
Help us to improve Ultimate-Guitar.com Take our survey!
×
Author
Tabbers playing skills
intermediate
A Looking In View
Alice In Chains


I tabbed this song in drop C, but since you never play the low C string, you could play
it in drop C# (C#G#C#F#A#D#) and just play the notes a half step lower than I tabbed.
All comments and ratings are appreciated too.


Guitar 1
D|--------------|------------------|4X
A|o-------------|-----------------o|
F|--------------|------------------|
C|---1-2-2-2-2--|--1-1-2-2-1-1-1---|
G|o--1-2-2-2-2--|--1-1-2-2-1-1-1--o|
C|---1-2-2-2-2--|--1-1-2-2-1-1-1---|
________________________________________________________________________________

Guitar 1
D|------------------|--------------------|------------------|--------------------|
A|------------------|--------------------|------------------|--------------------|
F|------------------|--------------------|------------------|--------------------|
C|--1-2-2-2-2-1-----|--1-1~-2-2~-1-1-1~--|--1-2-2-2-2-1-----|--1-1~-2-2~-1-1-1~--|
G|--1-2-2-2-2-1-5~--|--1-1~-2-2~-1-1-1~--|--1-2-2-2-2-1-2~--|--1-1~-2-2~-1-1-1~--|
C|--1-2-2-2-2-1-----|--1-1~-2-2~-1-1-1~--|--1-2-2-2-2-1-----|--1-1~-2-2~-1-1-1~--|

Guitar 2
D|---------------------|---------------|
A|---------------------|---------------|
F|--10b11-10b11b10-8~--|--7b8-7b8b7----|
C|---------------------|------------8--|
G|---------------------|---------------|
C|---------------------|---------------|
________________________________________________________________________________

Guitar 1
D|------------------|--------------------|------------------|--------------------|
A|------------------|--------------------|------------------|--------------------|
F|------------------|--------------------|------------------|--------------------|
C|--1-2-2-2-2-1-6~--|--1-1~-2-2~-1-1-1~--|--1-2-2-2-2-1-----|--1-1~-2-2~-1-1-1~--|
G|--1-2-2-2-2-1-----|--1-1~-2-2~-1-1-1~--|--1-2-2-2-2-1-5~--|--1-1~-2-2~-1-1-1~--|
C|--1-2-2-2-2-1-----|--1-1~-2-2~-1-1-1~--|--1-2-2-2-2-1-----|--1-1~-2-2~-1-1-1~--|

Guitar 2
D|----------------------------|---------------|-----------------|
A|----------------------------|---------------|----------11~----|
F|---------10b11-10b11b10-8~--|--7b8-7b8b7----|-------------8~--|
C|--8~/9-9--------------------|------------8--|--8~/9-9~--------|
G|----------------------------|---------------|-----------------|
C|----------------------------|---------------|-----------------|
________________________________________________________________________________

Guitar 1
D|-------------|----------------------------|
A|-------------|----------------------------|
F|-------------|---------THEN-BEND----------|
C|--1-2-2-2-2--|---------THE-NOTE-DOWN------|
G|--1-2-2-2-2--|--4~~~~~-W/-THE-WHAMMY-BAR--|
C|--1-2-2-2-2--|----------------------------|

D|------------------|--------------------|------------------|--------------------|
A|------------------|--------------------|------------------|--------------------|
F|------------------|--------------------|------------------|--------------------|
C|--1-2-2-2-2-1-----|--1-1~-2-2~-1-1-1~--|--1-2-2-2-2-1-----|--1-1~-2-2~-1-1-1~--|
G|--1-2-2-2-2-1-5~--|--1-1~-2-2~-1-1-1~--|--1-2-2-2-2-1-2~--|--1-1~-2-2~-1-1-1~--|
C|--1-2-2-2-2-1-----|--1-1~-2-2~-1-1-1~--|--1-2-2-2-2-1-----|--1-1~-2-2~-1-1-1~--|

D|------------------|--------------------|------------------|--------------------|
A|------------------|--------------------|------------------|--------------------|
F|------------------|--------------------|------------------|--------------------|
C|--1-2-2-2-2-1-6~--|--1-1~-2-2~-1-1-1~--|--1-2-2-2-2-1-----|--1-1~-2-2~-1-1-1~--|
G|--1-2-2-2-2-1-----|--1-1~-2-2~-1-1-1~--|--1-2-2-2-2-1-5~--|--1-1~-2-2~-1-1-1~--|
C|--1-2-2-2-2-1-----|--1-1~-2-2~-1-1-1~--|--1-2-2-2-2-1-----|--1-1~-2-2~-1-1-1~--|

D|-------------|-------------------------------|
A|-------------|-------------------------------|
F|-------------|------------THEN-BEND----------|
C|--1-2-2-2-2--|------------THE-NOTE-DOWN------|
G|--1-2-2-2-2--|--4~~-6~~~--W/-THE-WHAMMY-BAR--|
C|--1-2-2-2-2--|-------------------------------|

D|-------------------|--------------------|------------------|--------------------|
A|o------------------|--------------------|------------------|--------------------|
F|-------------------|--------------------|------------------|--------------------|
C|---1-2-2-2-2-1-----|--1-1~-2-2~-1-1-1~--|--1-2-2-2-2-1-----|--1-1~-2-2~-1-1-1~--|
G|o--1-2-2-2-2-1-5~--|--1-1~-2-2~-1-1-1~--|--1-2-2-2-2-1-2~--|--1-1~-2-2~-1-1-1~--|
C|---1-2-2-2-2-1-----|--1-1~-2-2~-1-1-1~--|--1-2-2-2-2-1-----|--1-1~-2-2~-1-1-1~--|

D|------------------|--------------------|------------------|---------------------|2X
A|------------------|--------------------|------------------|--------------------o|
F|------------------|--------------------|------------------|---------------------|
C|--1-2-2-2-2-1-6~--|--1-1~-2-2~-1-1-1~--|--1-2-2-2-2-1-----|--1-1~-2-2~-1-1-1~---|
G|--1-2-2-2-2-1-----|--1-1~-2-2~-1-1-1~--|--1-2-2-2-2-1-5~--|--1-1~-2-2~-1-1-1~--o|
C|--1-2-2-2-2-1-----|--1-1~-2-2~-1-1-1~--|--1-2-2-2-2-1-----|--1-1~-2-2~-1-1-1~---|

D|---------|---------|---------|----------|------------|
A|---------|---------|---------|----------|-------5\4--|
F|---------|---------|---------|----------|-------4\3--|
C|---------|---------|---------|----------|------------|
G|---------|---------|------1--|----1-2~--|----2~------|
C|--1/2-5--|--1/2-6--|--1/2----|--1-------|--1---------|

D|-------------|---------|----------|---------|
A|-------------|---------|----------|---------|
F|-------------|---------|----------|---------|
C|-------------|---------|----------|---------|
G|-------------|---------|----1-2~--|----2-1--|
C|--1-5-1-5/6--|--1-6/8--|--1-------|--1------|

D|---------|---------|---------|----------|------------|
A|---------|---------|---------|----------|-------5\4--|
F|---------|---------|---------|----------|-------4\3--|
C|---------|---------|---------|----------|------------|
G|---------|---------|------1--|----1-2~--|----2~------|
C|--1/2-5--|--1/2-6--|--1/2----|--1-------|--1---------|

D|-------------|---------|----------|-------------|
A|-------------|---------|----------|-------------|
F|-------------|---------|----------|-------------|
C|-------------|---------|----------|----(fast)---|
G|-------------|---------|----1-2~--|----(1-2-1)--|
C|--1-5-1-5/6--|--1-6/8--|--1-------|--1----------|

D|-------------|-------------|------------|----------|
A|-------------|-------------|------------|----------|
F|-------------|-------------|------------|----------|
C|--8\6-6~-6~--|--6\4-4~-4~--|--------1~--|------1~--|
G|--8\6-6~-6~--|--6\4-4~-4~--|--2-2-1-1~--|------1~--|
C|--8\6-6~-6~--|--6\4-4~-4~--|--------1~--|--1-4-1~--|

D|-----------------|------------|---------|
A|-----------------|------------|---------|
F|-----------------|------------|---------|
C|-------------1~--|--1~-4~-1~--|---------|
G|-------------1~--|--1~-4~-1~--|------1--|
C|--1/4-6~-6-4-1~--|--1~-4~-1~--|--1-4----|

D|-------------|-------------|------------|----------|
A|-------------|-------------|------------|----------|
F|-------------|-------------|------------|----------|
C|--8\6-6~-6~--|--6\4-4~-4~--|--------1~--|------1~--|
G|--8\6-6~-6~--|--6\4-4~-4~--|--2-2-1-1~--|------1~--|
C|--8\6-6~-6~--|--6\4-4~-4~--|--------1~--|--1-4-1~--|

D|-----------------|-----------|-----------|
A|-----------------|-----------|-----------|
F|-----------------|-----------|--SILENCE--|
C|-------------1~--|--1~-4~-1--|-----------|
G|-------------1~--|--1~-4~-1--|-----------|
C|--1/4-6~-6-4-1~--|--1~-4~-1--|-----------|

D|--------------|------------------|4X
A|o-------------|-----------------o|
F|--------------|------------------|
C|---1-2-2-2-2--|--1-1-2-2-1-1-1---|
G|o--1-2-2-2-2--|--1-1-2-2-1-1-1--o|
C|---1-2-2-2-2--|--1-1-2-2-1-1-1---|

________________________________________________________________________________

Guitar 1
D|--------------|------------------|4X
A|o-------------|-----------------o|
F|--------------|------------------|
C|---1-2-2-2-2--|--1-1-2-2-1-1-1---|
G|o--1-2-2-2-2--|--1-1-2-2-1-1-1--o|
C|---1-2-2-2-2--|--1-1-2-2-1-1-1---|

Guitar 2
D|-------------------------|
A|-------------------------|
F|---------BEND-THE--------|
C|---------NOTE-DOWN-W/----|
G|--4~~~~~-THE-WHAMMY-BAR--|
C|-------------------------|
________________________________________________________________________________

Guitar 1
D|------------------|--------------------|------------------|--------------------|
A|------------------|--------------------|------------------|--------------------|
F|------------------|--------------------|------------------|--------------------|
C|--1-2-2-2-2-1-----|--1-1~-2-2~-1-1-1~--|--1-2-2-2-2-1-----|--1-1~-2-2~-1-1-1~--|
G|--1-2-2-2-2-1-5~--|--1-1~-2-2~-1-1-1~--|--1-2-2-2-2-1-2~--|--1-1~-2-2~-1-1-1~--|
C|--1-2-2-2-2-1-----|--1-1~-2-2~-1-1-1~--|--1-2-2-2-2-1-----|--1-1~-2-2~-1-1-1~--|

D|------------------|--------------------|------------------|--------------------|
A|------------------|--------------------|------------------|--------------------|
F|------------------|--------------------|------------------|--------------------|
C|--1-2-2-2-2-1-6~--|--1-1~-2-2~-1-1-1~--|--1-2-2-2-2-1-----|--1-1~-2-2~-1-1-1~--|
G|--1-2-2-2-2-1-----|--1-1~-2-2~-1-1-1~--|--1-2-2-2-2-1-5~--|--1-1~-2-2~-1-1-1~--|
C|--1-2-2-2-2-1-----|--1-1~-2-2~-1-1-1~--|--1-2-2-2-2-1-----|--1-1~-2-2~-1-1-1~--|

D|----------|---------|---------|----------|------------|
A|o---------|---------|---------|----------|-------5\4--|
F|----------|---------|---------|----------|-------4\3--|
C|----------|---------|---------|----------|------------|
G|o---------|---------|------1--|----1-2~--|----2~------|
C|---1/2-5--|--1/2-6--|--1/2----|--1-------|--1---------|

D|-------------|---------|----------|---------|
A|-------------|---------|----------|---------|
F|-------------|---------|----------|---------|
C|-------------|---------|----------|---------|
G|-------------|---------|----1-2~--|----2-1--|
C|--1-5-1-5/6--|--1-6/8--|--1-------|--1------|

D|---------|---------|---------|----------|------------|
A|---------|---------|---------|----------|-------5\4--|
F|---------|---------|---------|----------|-------4\3--|
C|---------|---------|---------|----------|------------|
G|---------|---------|------1--|----1-2~--|----2~------|
C|--1/2-5--|--1/2-6--|--1/2----|--1-------|--1---------|

D|-------------|---------|----------|--------------|2X
A|-------------|---------|----------|-------------o|
F|-------------|---------|----------|--------------|
C|-------------|---------|----------|----(fast)----|
G|-------------|---------|----1-2~--|----(1-2-1)--o|
C|--1-5-1-5/6--|--1-6/8--|--1-------|--1-----------|

D|-------------|-------------|------------|----------|
A|-------------|-------------|------------|----------|
F|-------------|-------------|------------|----------|
C|--8\6-6~-6~--|--6\4-4~-4~--|--------1~--|------1~--|
G|--8\6-6~-6~--|--6\4-4~-4~--|--2-2-1-1~--|------1~--|
C|--8\6-6~-6~--|--6\4-4~-4~--|--------1~--|--1-4-1~--|

D|-----------------|------------|---------|
A|-----------------|------------|---------|
F|-----------------|------------|---------|
C|-------------1~--|--1~-4~-1~--|---------|
G|-------------1~--|--1~-4~-1~--|------1--|
C|--1/4-6~-6-4-1~--|--1~-4~-1~--|--1-4----|

D|-------------|-------------|------------|
A|-------------|-------------|------------|
F|-------------|-------------|------------|
C|--8\6-6~-6~--|--6\4-4~-4~--|--------1~--|
G|--8\6-6~-6~--|--6\4-4~-4~--|--2-2-1-1~--|
C|--8\6-6~-6~--|--6\4-4~-4~--|--------1~--|

D|-----------|-----------------|3X
A|o----------|----------------o|
F|-----------|-----------------|
C|-------1~--|-------------1~--|
G|o------1~--|-------------1~-o|
C|---1-4-1~--|--1/4-6~-6-4-1~--|

D|----------|-----------|------|
A|----------|-----------|------|
F|----------|--6-6-6-6--|------|
C|--1-4-1~--|--6-6-6-6--|--1~--|
G|--1-4-1~--|--4-4-4-4--|--1~--|
C|--1-4-1~--|-----------|--1~--|

D|----------|------------------|-----------|3X |----------------|
A|----------|o-----------------|----------o|   |----------------|
F|----------|------------------|-----------|   |--6~-6-6-6~-6~--|
C|------1~--|--------------1~--|--1-4-1~---|   |--6~-6-6-6~-6~--|
G|------1~--|o-------------1~--|--1-4-1~--o|   |--4~-4-4-4~-4~--|
C|--1-4-1~--|---1/4-6~-6-4-1~--|--1-4-1~---|   |----------------|

D|-------------|------------------|-----------|3X |----------------|
A|-------------|o-----------------|----------o|   |----------------|
F|-------------|------------------|-----------|   |--6~-6-6-6~-6~--|
C|--1~-----1~--|--------------1~--|--1-4-1~---|   |--6~-6-6-6~-6~--|
G|--1~-----1~--|o-------------1~--|--1-4-1~--o|   |--4~-4-4-4~-4~--|
C|--1~-1-4-1~--|---1/4-6~-6-4-1~--|--1-4-1~---|   |----------------|

D|-------------|------------------|-----------|3X
A|-------------|o-----------------|----------o|
F|-------------|------------------|-----------|
C|--1~-----1~--|--------------1~--|--1-4-1~---|
G|--1~-----1~--|o-------------1~--|--1-4-1~--o|
C|--1~-1-4-1~--|---1/4-6~-6-4-1~--|--1-4-1~---|

D|-------|-------------|-------------|------------|----------|
A|-------|-------------|-------------|------------|----------|
F|-------|-------------|-------------|------------|----------|
C|-------|--8\6-6~-6~--|--6\4-4~-4~--|--------1~--|------1~--|
G|-------|--8\6-6~-6~--|--6\4-4~-4~--|--2-2-1-1~--|------1~--|
C|--8-9--|--8\6-6~-6~--|--6\4-4~-4~--|--------1~--|--1-4-1~--|

D|-----------------|------------|---------|
A|-----------------|------------|---------|
F|-----------------|------------|---------|
C|-------------1~--|--1~-4~-1~--|---------|
G|-------------1~--|--1~-4~-1~--|------1--|
C|--1/4-6~-6-4-1~--|--1~-4~-1~--|--1-4----|

D|-------------|-------------|------------|
A|-------------|-------------|------------|
F|-------------|-------------|------------|
C|--8\6-6~-6~--|--6\4-4~-4~--|--------1~--|
G|--8\6-6~-6~--|--6\4-4~-4~--|--2-2-1-1~--|
C|--8\6-6~-6~--|--6\4-4~-4~--|--------1~--|

D|-----------|-----------------|3X
A|o----------|----------------o|
F|-----------|-----------------|
C|-------1~--|-------------1~--|
G|o------1~--|-------------1~-o|
C|---1-4-1~--|--1/4-6~-6-4-1~--|

D|----------|-----------|------|
A|----------|-----------|------|
F|----------|--6-6-6-6--|------|
C|--1-4-1~--|--6-6-6-6--|--1~--|
G|--1-4-1~--|--4-4-4-4--|--1~--|
C|--1-4-1~--|-----------|--1~--|

D|----------|------------------|-----------|3X
A|----------|o-----------------|----------o|
F|----------|------------------|-----------|
C|------1~--|--------------1~--|--1-4-1~---|
G|------1~--|o-------------1~--|--1-4-1~--o|
C|--1-4-1~--|---1/4-6~-6-4-1~--|--1-4-1~---|

D|------------------------------|
A|--19b20-16-19b20-16-19b20~~~--|
F|------------------------------|
C|------------------------------|
G|------------------------------|
C|------------------------------|

D|----------|------------------|-----------|3X |-----------|------|
A|----------|o-----------------|----------o|   |-----------|------|
F|----------|------------------|-----------|   |--6-6-6-6--|------|
C|------1~--|--------------1~--|--1-4-1~---|   |--6-6-6-6--|--1~--|
G|------1~--|o-------------1~--|--1-4-1~--o|   |--4-4-4-4--|--1~--|
C|--1-4-1~--|---1/4-6~-6-4-1~--|--1-4-1~---|   |-----------|--1~--|

D|----------|------------------|-----------|REPEAT
A|----------|o-----------------|----------o|UNTIL
F|----------|------------------|-----------|END
C|------1~--|--------------1~--|--1-4-1~---|AND
G|------1~--|o-------------1~--|--1-4-1~--o|FADE
C|--1-4-1~--|---1/4-6~-6-4-1~--|--1-4-1~---|OUT
Suggest correction
comments
print report bad tab
14 comments total. Showing first comments.
0 reply
metalslayer09 749 wrote on July 2 2009, 05:05 pm

man that was quick! didn't that song just come out like 3 or so days ago? anyways thanks for the tab man, saved me a lot of time tryin to tab it out

0 reply
\m/[-_-]\m/ 333 wrote on July 2 2009, 06:00 pm

^^^ Yea, it came out yesterday and I spent most of yesterday tabbing it and submitting it to UG. It's a looooong song too.

+2 reply
WD Punk 20 wrote on July 2 2009, 10:13 pm

damn
i bow to you for tabbing this in like 1 day

guest
You may want to rate the tab now too:
select rating
Wanna post a correction for this tab? Suggest correction